Razor Stainz - Lost Chords & Tabs

 

Lost Chords & Tabs

Razor Stainz Chords & Tabs

Version: 1 Type: Tab 0 ratings
1 star 2 stars 3 stars 4 stars 5 stars
comments

Lost Tab

   
Razor Stainz "Lost".
Tabbed by B.  MInorLgr20@aol.com.
  
E-6--6--6--6--6--6--6--6--6--6------------------------
B-6--6--6--6--6--6--6--6--6--6------INTRO--clean------
G-6--6--6--6--6--6--6--6--6--6------------------------
D-6--6--6--6--6--6--6--6--6--6------------------------
A-6--6--6--6--6--6--6--6--6--6---6-6-6---6--6--6--6--6
E-44h4--44h4--44h4--44h4--44h4-4--4--5--4--4--5--4--4-
[ Tab from: http://www.guitartabs.cc/tabs/r/razor_stainz/lost_tab.html ]
Verse distorted play 3x
E-666666666-------6666666677/9-66666666/999
B-666666666-777-6-6666666677/9-66666666/999
G-666666666-777-6-6666666677/9-66666666/999
D-666666666-777-6-6666666677/9-66666666/999
A-444444444-777-6-4444444455/7-44444444/779
E-----------555-4-------------------------7

Chorus distorted play 3x
E-9999---------
B-9999-99/7-5-2
G-9999-99/7-5-2
D-9999-99/7-5-2
A-9999-99/7-5-2
E------77/5-3-0

sOLO DISTORTED W/ WAH
E
B-12--12h14-----15-12------------16----16-17-16-12-11
G-----------14b------15-12b/15-15---15
D
A
E

repeat verse two times and chorus two times end on
E
B-22-4
G-22-4
D-22-4
A-22-4
E-00-2 
:: Ultimate Guitar Archive :: 
http://www.ultimate-guitar.com 

Comments