Raye Collin - Love Me Chords & Tabs

 

Love Me Chords & Tabs

Raye Collin Chords & Tabs

Version: 1 Type: Chords 1 rating
1 star 2 stars 3 stars 4 stars 5 stars
comments

Love Me Chords

   
#----------------------------------PLEASE NOTE---------------------------------#
#This file is the author's own work and represents their interpretation of the #
#song. You may only use this file for private study, scholarship, or research. #
#------------------------------------------------------------------------------##

			"Love, Me" by Collin Raye

	   transcribed by Evan Lavidor  


Chords:
	C   X32010	amin7/G 302010 (abbrev. to am/G)
	G/B X2003X	F   133211
	am  X02210	G   355433 or 320033 depending 
	dm  XX0231	em  022000   

The Intro is:
[ Tab from: http://www.guitartabs.cc/tabs/r/raye_collin/love_me_crd.html ]
  C           G/B        am          am/G          N.C.

e-0--------------------|-------------------------|-1--0--------------------|
B----3--1--3-----------|-1--0--1--1--------------|-3--1--3--1--0-----1--1--|
G-----------------0----|-------------------0-----|-------4--2--0-----0--0--|
D---------------0---0--|----------------2-----2--|----------------0--------|
A-0-----------2--------|-0-----------------------|-------------------------|
E----------------------|-------------3-----------|-------------------------|

  C
   
e-------1--0--|
B-------1--1--|
G----0--------|     
Comments