Ray Lamontagne - Trouble Chords & Tabs

 

Trouble Chords & Tabs

Ray Lamontagne Chords & Tabs

Version: 1 Type: Tab 0 ratings
1 star 2 stars 3 stars 4 stars 5 stars
comments

Trouble Tab

   
Ray LaMontagne
Trouble
Tabbed by Dave Hamilton (Hami41)

Intro - G C G D(sus - add your pinky to the third fret, first string)

Verse - G D G C
G D C G D

Chorus - G G C F C

Bridge - Am7 D7 D7sus D7 D9 D7

On Conan after the 2nd bridge he played this: C Bm Am G

Descending chords towards the end after 2nd bridge:
[ Tab from: http://www.guitartabs.cc/tabs/r/ray_lamontagne/trouble_tab.html ]
e|--0--0--0--3---------------------------------------------------|
B|--1--1--1--0---------------------------------------------------|
G|--0--0--2--0---------------------------------------------------|
D|--2-----2--0---------------------------------------------------|
A|--3--2--0--2---------------------------------------------------|
E|-----------3---------------------------------------------------|

Ending - G C G C for a while then end on a G


Chords

----G--C--D(sus)--F--Am7---D7(sus)--D9---Bm--Am

e|--3--0--2(3)-------0-----2(3)-----0----2---0-------------------|
B|--0--1--3-------1--1-----1--------1----3---1-------------------|
G|--0--0--2-------2--0-----2--------2----4---2-------------------|
D|--0--2--0-------3--2-----0--------0----4---2-------------------|
A|--2--3----------3--0-------------------2---0-------------------|
E|--3--3---------------------------------------------------------|
Comments