Ray Charles - Yesterday Chords & Tabs

 

Yesterday Chords & Tabs

Ray Charles Chords & Tabs

Version: 1 Type: Tab 0 ratings
1 star 2 stars 3 stars 4 stars 5 stars
comments

Yesterday Tab

simple man83
tabbed by bobby c




|--2--| intro 4x
|--2--|
|--1--| 
|--0--|
|--0--| 
|--0--|


|----------------------0--1--0--------------| 
|--------------0--2--3----------3--3--------| 
|--0--------2-------------------------------| 
|-----3--3----------------------------------| 
|-------------------------------------------| 
|-------------------------------------------|

|-------------------------------------------------|
|--3--3--1----------------------------------------|
|-----------3--2--0--3--2--2--0----2--0------2--2/| 
|--------------------------------3------0--3------|
|-------------------------------------------------|
|-------------------------------------------------|

verse

|-----------------0--1--0----------0-----------------|
|--------------3------------3-----------3----1----3--| 
|---2---2--------------------------------------------| 
|----------------------------------------------------| 
|----------------------------------------------------| 
|----------------------------------------------------| 

|-------------0--1--0------0----------0--1--|
|-----------3----------3------3--1----------|
|--2--2--2----------------------------------|
|-------------------------------------------|
|-------------------------------------------|
|-------------------------------------------|
chorus^


|----------------------0--1--0--------------| 
|--------------0--2--3----------3--3--------| 
|--0--------2-------------------------------| 
|-----3--3----------------------------------| 
|-------------------------------------------| 
|-------------------------------------------|
[ Tab from: http://www.guitartabs.cc/tabs/r/ray_charles/yesterday_tab.html ]
|-------------------------------------------------|
|--3--3--1----------------------------------------|
|-----------3--2--0--3--2--2--0----2--0------2--2/| 
|--------------------------------3------0--3------|
|-------------------------------------------------|
|-------------------------------------------------|
verse^

|-----------------0--1--0----------0-----------------|
|--------------3------------3-----------3----1----3--| 
|---2---2--------------------------------------------| 
|----------------------------------------------------| 
|----------------------------------------------------| 
|----------------------------------------------------| 

|-------------0--1--0------0----------0--1--------|
|-----------3----------3------3--1---------1------|
|--2--2--2------------------------------------3--2|
|-------------------------------------------------|
|-------------------------------------------------|
|-------------------------------------------------|
chorus^

|----------------------0--1--0--------------| 
|--------------0--2--3----------3--3--------| 
|--0--------2-------------------------------| 
|-----3--3----------------------------------| 
|-------------------------------------------| 
|-------------------------------------------|

|-------------------------------------------------|
|--3--3--1----------------------------------------|
|-----------3--2--0--3--2--2--0----2--0------2--2/| 
|--------------------------------3------0--3------|
|-------------------------------------------------|
|-------------------------------------------------|
verse^

|---------------------| 
|---------------------| 
|----2--0-------2--2--| 
|-3--------0--3-------| 
|---------------------| 
|---------------------|
end


i put this song under ray charles cuz i feel his its better and he deserves it
Comments