Ray Charles - I Can See Clearly Now Chords & Tabs

 

I Can See Clearly Now Chords & Tabs

Ray Charles Chords & Tabs

Version: 3 Type: Tab 0 ratings
1 star 2 stars 3 stars 4 stars 5 stars
comments

I Can See Clearly Now Tab

E--------------------------------------------------------------------|
A--------------------------------------------------------------------|
D---------0---------------------0-----------------------0------------|
G---0-2-4---4-2-0-2-4-----0-2-4---4-2-0---0-2-0-2-0-2-4---4-2-0------|
B---------------------0-0---------------4-----------------------0-0--|
E--------------------------------------------------------------------|

[ Tab from: http://www.guitartabs.cc/tabs/r/ray_charles/i_can_see_clearly_now_tab_ver_3.html ]
E--------------------------------------------------------------------|
A--------------------------------------------------------------------|
D----------------------0---------------------0-----------------------|
G----------0-3-2---0-2---0-0-0-0-0-3-2---0-2---0---------------------|
B--0-0-0-0-------3---------------------3-----------------------------|
E--------------------------------------------------------------------|
Comments