Ray Charles - Hit The Road Jack Chords & Tabs

 

Hit The Road Jack Chords & Tabs

Ray Charles Chords & Tabs

Version: 3 Type: Tab 0 ratings
1 star 2 stars 3 stars 4 stars 5 stars
comments

Hit The Road Jack Tab

e----------------------------|
b----------------------------|
g----------------------------|
d----------------------------|
a-9----7-----5--4------------|
e-7----5-----3--2------------| play that as many times as you want...........



[ Tab from: http://www.guitartabs.cc/tabs/r/ray_charles/hit_the_road_jack_tab_ver_3.html ]
then go into this...
e----------------------------------------------------------------|
b-4--0--2-------------0-0-2-2--0---4-4--9--9--12-12-9------------|
g---------1-------1----------------------------------------------|
d----------------------------------------------------------------|
a----------------------------------------------------------------|
e----------------------------------------------------------------|

e-----------------------------------------------------------------|
b--4--0--2----------------0-0-2-2-0-------------------------------|
g------------1---------1-------------1----------------------------|
d-----------------------------------------------------------------|
a-----------------------------------------------------------------|
e-----------------------------------------------------------------|




Tab By...t.d                      hope you enjoy
Comments