Ray Charles - Busted Chords & Tabs

 

Busted Chords & Tabs

Ray Charles Chords & Tabs

Version: 1 Type: Bass Tab 0 ratings
1 star 2 stars 3 stars 4 stars 5 stars
comments

Busted Bass Tab

   
Busted.btab
Ray Charles
TablEdited by Poppamies
Tuning : E A D G 	Time Signature: 6/8

 tempo 100   |            |           |            |           |            
|------------------------|------------------------|------------------------|
|------------------------|--------------------8---|------------------------|
|6-----------------------|6-----------------------|6-----------------------|
|------------------------|------------------------|------------------------|

 |           |            |           |            |           |            
|------------------------|------------------------|------------------------|
|--------------------8---|------------------------|--------------------8---|
|6-----------------------|6-----------------------|6-----------------------|
|------------------------|------------------------|------------------------|

 |           |            |           |            |           |            
|------------------------|------------------------|------------------------|
|------------------------|--------------------8---|--------8---8-------8---|
|6-----------------------|6-----------------------|6-----------------------|
|------------------------|------------------------|------------------------|

 |           |            |           |            |           |            
|------------------------|------------------------|------------------------|
|--------8---8-------8---|------------8-----------|------------8-----------|
|6-----------------------|--------8-----------8---|--------8-----------8---|
|------------------------|6-----------------------|6-----------------------|
[ Tab from: http://www.guitartabs.cc/tabs/r/ray_charles/busted_btab.html ]
 |           |            |           |            |           |            
|------------------------|------------------------|------------8-----------|
|------------8-----------|------------8-----------|--------8-----------8---|
|--------8-----------8---|--------8-----------8---|6-----------------------|
|6-----------------------|6-----------------------|------------------------|

 |           |            |           |            |           |            
|------------8-----------|------------8-----------|------------8-----------|
|--------8-----------8---|--------8-----------8---|--------8-----------8---|
|6-----------------------|6-----------------------|6-----------------------|
|------------------------|------------------------|------------------------|

 |           |            |           |            |           |            
|------------------------|------------------------|------------------------|
|6-----------6-----------|6-----------6-----------|------------8-----------|
|--------6-----------6---|--------6-----------6---|--------8-----------8---|
|------------------------|------------------------|6-----------------------|

 |           |            |           |            |           |            
|------------------------|------------------------|------------------------|
|------------8-----------|------------------------|--------------------8---|
|--------8-----------8---|6-----------------------|6-----------------------|
|6-----------------------|------------------------|----- and so on...------|

Transcribe! 6.0 transcription http://www.seventhstring.demon.co.uk/
Created with TablEdit http://www.tabledit.com/
http://www.geocities.com/jani_bjorklund/janis.html
Comments