Ravi - 2 Guys And A Girl Chords & Tabs

 

2 Guys And A Girl Chords & Tabs

Ravi Chords & Tabs

Version: 1 Type: Tab 0 ratings
1 star 2 stars 3 stars 4 stars 5 stars
comments

2 Guys And A Girl Tab

   
#----------------------------------PLEASE NOTE---------------------------------#
#This file is the author's own work and represents their interpretation of the #
#song. You may only use this file for private study, scholarship, or research. #
#------------------------------------------------------------------------------##
From: ravi : rav_30@hotmail.com
Date: Wed, 28 may 2002 19:07pm
NOTE this file is superior to devs, he is my tab rival
[ Tab from: http://www.guitartabs.cc/tabs/r/ravi/2_guys_and_a_girl_tab.html ]
this tab is for the theme song to 2 guys & a girl, the semi popular 
sitcom on trouble. 
standard tuning
||--------------------------------------------------------||
||--------------------------------------------------------||
||--------------------------------------------------------||
||--------------------------------------------------------||
||-----------3-3-----------------------------------3-3----||
||---3-0-3-------3-3----0-0---1-1--2-2------3-0-3------3--||

repeat as needed
chords : 
||---x---x---x---x---x---x--------------------------------------||
||---x---x---x---x---x---x------------------------------------||
||---x---x---5---x---x---x----------------------------------||
||---5---0---5---2---3---4------------------------------||
||---5---0---3---2---3---4--------------------------------||
||---3---0---x---0---1---2------------------------------||
     G   ?   c   E   F   F#
the chords may be wrong but everthing else is 91% right
if u have any questions please send thtem to rav_30@hotmail.com
Comments