Raveonettes - Attack Of The Ghost Riders Chords & Tabs

 

Attack Of The Ghost Riders Chords & Tabs

Raveonettes Chords & Tabs

Version: 1 Type: Tab 0 ratings
1 star 2 stars 3 stars 4 stars 5 stars
comments

Attack Of The Ghost Riders Tab

The Raveonettes are a new band and their home page is www.theraveonettes.com,
there you can sample their music and the song Ive tabbed, Attack of the Ghost
Riders. It is a relatively simple song to play buts its catchy.


Intro
E--------------------------------
B--------------------------------
G--------------------------------
D---7-7-7---5-5-5-5--------------
A---7-7-7---5-5-5-5--------------
E---5-5-5---3-3-3-3--------------


Verse
E--------------------------------
B--------------------------------
G--------------------------------
D---7-7-7---5-5-5-5--------------
A---7-7-7---5-5-5-5--------------
E---5-5-5---3-3-3-3--------------

[ Tab from: http://www.guitartabs.cc/tabs/r/raveonettes/attack_of_the_ghost_riders_tab.html ]
Chorus
E--------------------------------
B--------------------------------
G--------------------------------
D---3-3-3-3-3-3-3-3-3--5-5-------
A---x-x-x-x-x-x-x-x-x--5-5-------
E---1-1-1-1-1-1-1-1-1--3-3-------


Verse
E--------------------------------
B--------------------------------
G--------------------------------
D---7-7-7---5-5-5-5--------------
A---7-7-7---5-5-5-5--------------
E---5-5-5---3-3-3-3--------------


Chorus
E--------------------------------
B--------------------------------
G--------------------------------
D---3-3-3-3-3-3-3-3-3--5-5-------
A---x-x-x-x-x-x-x-x-x--5-5-------
E---1-1-1-1-1-1-1-1-1--3-3-------


Outro
E--------------------------------
B--------------------------------
G--------------------------------
D---7-7-7---5-5-5-5--------------
A---7-7-7---5-5-5-5--------------
E---5-5-5---3-3-3-3--------------
Comments