Rauli Badding Somerjoki - Paratiisi Chords & Tabs

 

Paratiisi Chords & Tabs

Rauli Badding Somerjoki Chords & Tabs

Version: 1 Type: Tab 0 ratings
1 star 2 stars 3 stars 4 stars 5 stars
comments

Paratiisi Tab

   
Paratiisi                               Rauli ``Badding`` Somerjoki

Raita 1
     C     B    A    A       A    B    A           G     F    E    E
E||-----------------------|---------------------|-----------------------|
B||-----------------------|---------------------|-----------------------|
G||-----------------------|---------------------|-----------------------|
D||--10----9----7----7----|--7----9----7--------|-----------------------|
A||-----------------------|---------------------|--10----8----7----7----|
E||-----------------------|---------------------|-----------------------|

[ Tab from: http://www.guitartabs.cc/tabs/r/rauli_badding_somerjoki/paratiisi_tab.html ]
   E    G     E           E    D    C           E    G     C
|----------------------|---------------------|-----------------------|
|----------------------|---------------------|-----------------------|
|----------------------|---------------------|-----------------------|
|----------------------|---------------------|-------------10--------|
|--7----10----7--------|--7----5-------------|--7----10--------------|
|----------------------|------------8--------|-----------------------|


   B    A    Ab   A       B
|----------------------|-----------||
|----------------------|-----------||
|----------------------|-----------||
|--9----7----6----7----|--9--------||
|----------------------|-----------||
|----------------------|-----------||
Comments