Raul Midon - Suddenly Chords & Tabs

 

Suddenly Chords & Tabs

Raul Midon Chords & Tabs

Version: 1 Type: Tab

Suddenly Tab

Raul Midon (http://www.raulmidon.com/index2.php) is an amazing guitarist but this song 
very simple to play and sounds great!! This is my first tab hope you enjoy i will do alot 
artists that are very unknown but play great guitar!!!-- AccordingToDAN

e/---------------------------0-------------------------------------------|
b/------------------0-----------------0----------------------------------|
g/------1------------------2--------2------------------------------------|
d/--------2---2----------2--------2--------------------------------------|
a/----2----------------0--------3----------------------------------------|
E/--0-------2------------------------------------------------------------|

e/-----------------------------0-----------------------------------------|
b/------------------0--------0-------------------------------------------|
g/------1------------------2---------------------------------------------|
d/--------2---2----------2-----------------------------------------------|
a/----2----------------0-------------------------------------------------|
E/--0-------2------------------------------------------------------------|

e/-----------------------------------------------------------------------|
b/-------------------------------------0---------------------------------|
g/------1----------------------------2-----------------------------------|
d/--------2------------------------2-------------------------------------|
a/----2--------------------------0---------------------------------------|
E/--0--------------------------------------------------------------------|
[ Tab from: http://www.guitartabs.cc/tabs/r/raul_midon/suddenly_tab.html ]
e/---------------------------0-------------------------------------------|
b/------------------0-----------------0----------------------------------|
g/------1------------------2--------2------------------------------------|
d/--------2---2----------2--------2--------------------------------------|
a/----2----------------0--------3----------------------------------------|
E/--0-------2------------------------------------------------------------|

e/-----------------------------0-----------------------------------------|
b/------------------0--------0-------------------------------------------|
g/------1------------------2---------------------------------------------|
d/--------2---2----------2-----------------------------------------------|
a/----2----------------0-------------------------------------------------|
E/--0-------2------------------------------------------------------------|


Repeat all of this one more time.....

This is the Chorus:

e/--------0----------4---------------------------------------------------|
b/--------5----------4---------------------------------------------------|
g/------6----------5------------6--------1-------------------------------|
d/----6----------6------------7------------4-----------------------------|
a/--4----------3------------7----------2---------------------------------|
E/------------------------5----------0-----------------------------------|

e/--------0----------4------------0--------------------------------------|
b/--------5----------4-----0------0--------------------------------------|
g/------6----------5-------6------9--------------------------------------|
d/----6----------6---------7-----11--------------------------------------|
a/--4----------3-----------7---------------------------------------------|
E/-----------------------------------------------------------------------|