Ratt - Wanted Man Chords & Tabs

 

Wanted Man Chords & Tabs

Ratt Chords & Tabs

Version: 1 Type: Tab 0 ratings
1 star 2 stars 3 stars 4 stars 5 stars
comments

Wanted Man Tab

by: dylan syer
email-msmaddy1960@yahoo.com
have fun learning this awsome song
i am sure this is almost or 100 percent right

key
p-pull off
h- hammer on
t- tap
s-slide
*-harmonic

standard tuning
intro

E--------------------------------7-------------------------]
B-------------5--------------9---8------5------------------]
G------9---7--6----5---------9---7---6--6---5--------------]
D------9---7--7----5---------9-------7--7---5--------------]
A----------------------------------------------------------]
E-000------------------000----------------------000--------]
[ Tab from: http://www.guitartabs.cc/tabs/r/ratt/wanted_man_tab.html ]
-----------------------------------------------------------]
--5---------------------------5--5---5--5------------------]
--6-----------------9--7--7---6--6---5--5------------------]
--7-----------------9--7--7---7--7---5--5------------------]
------------------------------------------------7----------]
-----0-3-0-5-3-2-0--------------------------00------3h4----]

--7---------------------00------------------------7------------]
--8---------5---5---------------------5---5----9--8-----5--5---]
--7---------6---5--------------9--7---6---5----9--7-----6--5---]
------777---7---5--------------9--7---7---5----9-----77-7--5---]
---------------------------------------------------------------]
-------------------00------0----------------000----------------]

---------------------------------------------------------------]
---------------------------------------------------------------]
---------5t17---------4t16---------5t19------------------------]
---7t19---------5t17--------5t17-------------------------------]
---------------------------------------------------------------]
---------------------------------------------------------------]
Comments