Ratt - She Wants Money Chords & Tabs

 

She Wants Money Chords & Tabs

Ratt Chords & Tabs

Version: 1 Type: Bass Tab 0 ratings
1 star 2 stars 3 stars 4 stars 5 stars
comments

She Wants Money Bass Tab

   
------------------------------------------------------------------------------- 
                                 She Wants Money - Ratt
-------------------------------------------------------------------------------

From the album: Out Of The Cellar (1984)

Tabbed by: ChrisT 

Tuning: Eb Ab Db Gb

Intro
Gb|--------------------------------------------------------------------|
Db|o------------------------------------------------------------------o|
Ab|o--6---6-6-6-6-6---2---2-2-2-2-2-----------------------------------o|
Eb|-----------------------------------4---4-4-4-4-4---4---4-4-4-4-4----|

                               Repeat x4
Gb|-------------------------------------|
Db|o-----------------------------------o|
Ab|o------------------2----------------o|
Eb|---3-------0---------------0*--------| *Not 4th time

Verse 1
Gb|-------------------------------------------------------------------|
Db|o------------------------------------------------------------------|
Ab|o--------------------------------------------------------------0---|
Eb|---2---2-2---2-2---2---2-2---2-2---2---2-2---2-2---2---2-2---2-----|

Gb|-------------------------------------------------------------------|
Db|------------------------------------------------------------------o|
Ab|--2---2-2---2-2---2---2-2---2-2---2---2-2---2-2---2---2-2---2-0---o|
Eb|-------------------------------------------------------------------|

Chorus                         Repeat x4
Gb|-------------------------------------|
Db|o-----------------------------------o|
Ab|o------------------2----------------o|
Eb|---3-------0---------------0*--------| *Not 4th time

Verse 2
Gb|-------------------------------------------------------------------|
Db|o------------------------------------------------------------------|
Ab|o--------------------------------------------------------------0---|
Eb|---2---2-2---2-2---2---2-2---2-2---2---2-2---2-2---2---2-2---2-----|

Gb|-------------------------------------------------------------------|
Db|------------------------------------------------------------------o|
Ab|--2---2-2---2-2---2---2-2---2-2---2---2-2---2-2---2---2-2---2-0---o|
Eb|-------------------------------------------------------------------|
[ Tab from: http://www.guitartabs.cc/tabs/r/ratt/she_wants_money_btab.html ]
Chorus                         Repeat x4
Gb|-------------------------------------|
Db|o-----------------------------------o|
Ab|o------------------2----------------o|
Eb|---3-------0---------------0*--------| *Not 4th time

Guitar solo
Gb|-------------------------------------------------------------------|
Db|o------------------------------------------------------------------|
Ab|o--------------------------------------------------------------0---|
Eb|---2---2-2---2-2---2---2-2---2-2---2---2-2---2-2---2---2-2---2-----|

Gb|-------------------------------------------------------------------|
Db|------------------------------------------------------------------o|
Ab|--2---2-2---2-2---2---2-2---2-2---2---2-2---2-2---2---2-2---2-0---o|
Eb|-------------------------------------------------------------------|

Verse 3
Gb|-------------------------------------------------------------------|
Db|o------------------------------------------------------------------|
Ab|o--------------------------------------------------------------0---|
Eb|---2---2-2---2-2---2---2-2---2-2---2---2-2---2-2---2---2-2---2-----|

Gb|-------------------------------------------------------------------|
Db|------------------------------------------------------------------o|
Ab|--2---2-2---2-2---2---2-2---2-2---2---2-2---2-2---2---2-2---2-0---o|
Eb|-------------------------------------------------------------------|

Chorus                         Repeat x4
Gb|-------------------------------------|
Db|o-----------------------------------o|
Ab|o------------------2----------------o|
Eb|---3-------0---------------0*--------| *Not 4th time

Gb|--------------------------------------------------------------------|
Db|o------------------------------------------------------------------o|
Ab|o--6---6-6-6-6-6---2---2-2-2-2-2-----------------------------------o|
Eb|-----------------------------------4---4-4-4-4-4---4---4-4-4-4-4----|

Outro                   Repeat until end
Gb|-------------------------------------|
Db|o-----------------------------------o|
Ab|o------------------2----------------o|
Eb|---3-------0---------------0---------|



| /  slide up
| \  slide down
| h  hammer-on
| p  pull-off
| ~  vibrato
| +  harmonic
| x  Mute note
===============================================================================
Comments