Ratt - Morning After Chords & Tabs

 

Morning After Chords & Tabs

Ratt Chords & Tabs

Version: 1 Type: Bass Tab 0 ratings
1 star 2 stars 3 stars 4 stars 5 stars
comments

Morning After Bass Tab

   
-------------------------------------------------------------------------------
                                    The Morning After - Ratt
-------------------------------------------------------------------------------

Tabbed by: ChrisT

From the album: Out Of The Cellar (1984)

Tuning: Eb, Ab, Db, Gb

Intro
Gb|---------------------------------------------------------------------------|
Db|---------------------------------------------------------------------------|
Ab|---------7\--------------3-5-6-7---7-7-7---7-7-7---7-7-7---7-7-7---7-7-7---|
Eb|---0-0-----------0-2-3-5---------------------------------------------------|

Gb|---------------------------------------------------------------|
Db|---------------------5-----5-----7-----7-----------------------|
Ab|---7-7-7---7-7-7-------------------------7-----7-----7-----7---|
Eb|-----------------3-3---3-3---5-5---5-5-----0-0---0-0---0-0-----|

Gb|----------------------------------------------------|
Db|----------------------------------------------------|
Ab|---\3---3-3-3---3---3-3-3---5---5-5-5---5---5-5-5---|
Eb|----------------------------------------------------|

Verse 1  0.27
Gb|-------------------------------------------------------------------|
Db|o------------------------------------------------------------------|
Ab|o--7-7-7---7-7-7---7-7-7---7-7-7---7-7-7---7-7-7---7-7-7---7-7-7---|
Eb|-------------------------------------------------------------------|

Gb|------------------------------------------------------------------|
Db|------------------------------------------------------------------|
Ab|--7-7-7---7-7-7---7-7-7---7-7-7---7-7-7---7-7-7---7-7-7---7-7-7---|
Eb|------------------------------------------------------------------|

Gb|------------------------------------------------------------------|
Db|------------------------------------------------------------------|
Ab|--7-7-7---7-7-7---5-5-5---5-5-5---5-5-5---3-3-3---3-3-3---3-3-3---|
Eb|------------------------------------------------------------------|

Gb|--------------------------|------------------------------------------|
Db|-------------------------o|------------------------------------------|
Ab|--5-5-5---5-5-5---5-5-5--o|--3-3-3---3-3-3---3-3-3---5-5-5---5-5-5---|
Eb|--------------------------|------------------------------------------|

Chorus
Gb|------------------------------------------------------|
Db|o------------------------------5-----5-----7-----7---o|
Ab|o------7-----7-----7-----7---------------------------o|
Eb|---0-0---0-0---0-0---0-0---3-3---3-3---5-5---5-5------|

Verse 2 
Gb|-------------------------------------------------------------------|
Db|o------------------------------------------------------------------|
Ab|o--7-7-7---7-7-7---7-7-7---7-7-7---7-7-7---7-7-7---7-7-7---7-7-7---|
Eb|-------------------------------------------------------------------|
[ Tab from: http://www.guitartabs.cc/tabs/r/ratt/morning_after_btab.html ]
Gb|------------------------------------------------------------------|
Db|------------------------------------------------------------------|
Ab|--7-7-7---7-7-7---7-7-7---7-7-7---7-7-7---7-7-7---7-7-7---7-7-7---|
Eb|------------------------------------------------------------------|

Gb|------------------------------------------------------------------|
Db|------------------------------------------------------------------|
Ab|--7-7-7---7-7-7---5-5-5---5-5-5---5-5-5---3-3-3---3-3-3---3-3-3---|
Eb|------------------------------------------------------------------|

Gb|--------------------------|------------------------------------------|
Db|-------------------------o|------------------------------------------|
Ab|--5-5-5---5-5-5---5-5-5--o|--3-3-3---3-3-3---3-3-3---5-5-5---5-5-5---|
Eb|--------------------------|------------------------------------------|

Chorus
Gb|------------------------------------------------------|
Db|o------------------------------5-----5-----7-----7---o|
Ab|o------7-----7-----7-----7---------------------------o|
Eb|---0-0---0-0---0-0---0-0---3-3---3-3---5-5---5-5------|

Gb|--------------------------------------------------------------------|
Db|------------------------------3-----3-----5-----5-------------------|
Ab|------7-----7-----7-----7-------------------------------------------|
Eb|--0-0---0-0---0-0---0-0---1-1---1-1---3-3---3-3---5-5---------5-5---|

Guitar Solo                                                        Repeat x4
Gb|-------------|-----------------------------------------------------------|
Db|-------------|o---------------------------------------------------------o|
Ab|--0-2-3-5-2--|o--2-2-2---2-2-2---2-2-2---2-2-2---2-2-2---2-2-2---2-2-2--o|
Eb|-------------|-----------------------------------------------------------|

                                                                    Repeat x4
Gb|--------------|------------------------------------------------------------|
Db|--------------|o----------------------------------------------------------o|
Ab|---2---0------|o----------------------------------------------------------o|
Eb|-----------3--|---0-0-0---0-0-0---0-0-0---0-0-0---0-0-0---0-0-0---0-0-0----|

Gb|--------------------|--------5-------------5-------------7-------------7--------|
Db|---2-0--------------|-----------------------------------------------------------|
Ab|-------4-2-0--------|--3-3-3---3-3---3-3-3---3-3---5-5-5---5-5---5-5-5-----5-5--|
Eb|-------------4-2-0--|-----------------------------------------------------------|

Gb|---------5-------------5-------------7---------------------|
Db|-------------------------------------------------------5---|
Ab|--3-3-3---3-3---3-3-3---3-3---5-5-5---5-5---5---7---8------|
Eb|-----------------------------------------------------------|

Outro                                    Repeat until end
Gb|------------------------------------------------------|
Db|o------------------------------5-----5-----7-----7---o|
Ab|o------7-----7-----7-----7---------------------------o|
Eb|---0-0---0-0---0-0---0-0---3-3---3-3---5-5---5-5------|


| /  slide up
| \  slide down
| h  hammer-on
| p  pull-off
| ~  vibrato
| +  harmonic
| x  Mute note
===============================================================================
Comments