Ratt - Im Insane Chords & Tabs

 

Im Insane Chords & Tabs

Ratt Chords & Tabs

Version: 1 Type: Bass Tab 0 ratings
1 star 2 stars 3 stars 4 stars 5 stars
comments

Im Insane Bass Tab

   
-------------------------------------------------------------------------------
                               I'm Insane - Ratt
-------------------------------------------------------------------------------

Tabbed by: ChrisT

From the Album: Out Of The Cellar (1984)

Tuning: Eb,Ab,Db,Gb

Intro                                        Repeat x3
Gb|---------------------------|-----------------------|-------------|
Db|---------------------------|o---------------------o|-------------|
Ab|---------------------------|o---------------------o|-------------|
Eb|--4-5-----5-----4-5-6-3----|---4h5---5-5-5-5-5-5---|---4-5-6-3---|

Verse 1
Gb|----------------------------------------------------------------------|
Db|o--------------------------------------------------------------------o|
Ab|o--------------------------------------------------------------------o|
Eb|---4h5---5-5-5-5-5-5-4h5---5-5-5-5-5-5-4h5---5-5-5-5-5-5---4-5-6-3----|

Chorus
Gb|-----------------------------------------------------------------------|
Db|-----------------------------------------------------------------------|
Ab|-----------------------------------------------------------------------|
Eb|---6-5-3-1---1-1-1---1-1-1---1-1-1---6-5-3-1---1-1-1---1-1-1---1-1-1---|

Gb|-----------------------------------------------------------------------|
Db|-----------------------------------------------------------------------|
Ab|-----------------------------------------------------------------------|
Eb|---6-5-3-3---3-3-3---3-3-3---3-3-3---6-5-3-3---3-3-3---3-3-3---3-3-3---|

Gb|----------------------------------------------------------------------|
Db|o--------------------------------------------------------------------o|
Ab|o--------------------------------------------------------------------o|
Eb|---4h5---5-5-5-5-5-5-4h5---5-5-5-5-5-5-4h5---5-5-5-5-5-5---4-5-6-3----|

Verse 2
Gb|----------------------------------------------------------------------|
Db|o--------------------------------------------------------------------o|
Ab|o--------------------------------------------------------------------o|
Eb|---4h5---5-5-5-5-5-5-4h5---5-5-5-5-5-5-4h5---5-5-5-5-5-5---4-5-6-3----|

Chorus
Gb|-----------------------------------------------------------------------|
Db|-----------------------------------------------------------------------|
Ab|-----------------------------------------------------------------------|
Eb|---6-5-3-1---1-1-1---1-1-1---1-1-1---6-5-3-1---1-1-1---1-1-1---1-1-1---|

Gb|-----------------------------------------------------------------------|
Db|-----------------------------------------------------------------------|
Ab|-----------------------------------------------------------------------|
Eb|---6-5-3-3---3-3-3---3-3-3---3-3-3---6-5-3-3---3-3-3---3-3-3---3-3-3---|
[ Tab from: http://www.guitartabs.cc/tabs/r/ratt/im_insane_btab.html ]
Gb|----------------------------------------------------------------------|
Db|o--------------------------------------------------------------------o|
Ab|o--------------------------------------------------------------------o|
Eb|---4h5---5-5-5-5-5-5-4h5---5-5-5-5-5-5-4h5---5-5-5-5-5-5---4-5-6-3----|

Bridge
Gb|---------------------------------------------------------------|
Db|---------------------------------------------------------------|
Ab|---7---5---7-------7---5---7-------7---5---7-------7---5---7\--|
Eb|---------------0---------------0---------------0---------------|

Guitar Solo                                                     Repeat x4
Gb|----------------------------------------------------------------------|
Db|o--------------------------------------------------------------------o|
Ab|o--------------------------------------------------------------------o|
Eb|---4h5---5-5-5-5-5-5-4h5---5-5-5-5-5-5-4h5---5-5-5-5-5-5---4-5-6-3----|

Gb|-------------------------------------------------------------------|
Db|-------------------------------------------------------------------|
Ab|---7---5---7-------7---5---7-------7---5---7-------7---5---7-------|
Eb|---------------0---------------0---------------0---------------0---|

Verse 3                                                         Repeat x4
Gb|----------------------------------------------------------------------|
Db|o--------------------------------------------------------------------o|
Ab|o--------------------------------------------------------------------o|
Eb|---4h5---5-5-5-5-5-5-4h5---5-5-5-5-5-5-4h5---5-5-5-5-5-5---4-5-6-3----|

Gb|-----------------------------------------------------------------------|
Db|-----------------------------------------------------------------------|
Ab|-----------------------------------------------------------------------|
Eb|---6-5-3-1---1-1-1---1-1-1---1-1-1---6-5-3-1---1-1-1---1-1-1---1-1-1---|

Gb|-----------------------------------------------------------------------|
Db|-----------------------------------------------------------------------|
Ab|-----------------------------------------------------------------------|
Eb|---6-5-3-3---3-3-3---3-3-3---3-3-3---6-5-3-3---3-3-3---3-3-3---3-3-3---|

Outro                                                           Repeat x4
Gb|----------------------------------------------------------------------|
Db|o--------------------------------------------------------------------o|
Ab|o--------------------------------------------------------------------o|
Eb|---4h5---5-5-5-5-5-5-4h5---5-5-5-5-5-5-4h5---5-5-5-5-5-5---4-5-6-3----|

Gb|---------------------|
Db|---------------------|
Ab|---------------------|
Eb|---5-----3-----5\----|



| /  slide up
| \  slide down
| h  hammer-on
| p  pull-off
| ~  vibrato
| +  harmonic
| x  Mute note
===============================================================================
Comments