Rata Blanca - El Amo Del Camino Chords & Tabs

 

El Amo Del Camino Chords & Tabs

Rata Blanca Chords & Tabs

Version: 1 Type: Tab 0 ratings
1 star 2 stars 3 stars 4 stars 5 stars
comments

El Amo Del Camino Tab

Grupo: Rata Blanca
Canción: El amo del camino
Disco: El camino del fuego

Aquí esta el tab no estoy seguro si asi la tocan pero suena bien.

Verso (con un poco de distorcion)
e-----------
b-----------
g-----------
D--5-22-5-2-
A--5-22-5-2-
E--3-00-3-0-
[ Tab from: http://www.guitartabs.cc/tabs/r/rata_blanca/el_amo_del_camino_tab.html ]
Coro(con mucha distorcion) 
e---------------------------------
b---------------------------------
g----------10------------10-------
D------4---10-x7---------10-x7----
A--3-6---6-8-----9-8-6-8-8--------
E---------------------------------

Eso es todo, ya se que me faltan los 2 solos, pero Walter es un gran guitarrista
y yo solo soy un fan que no le llega a los talones asi que no se enojen hago lo
mejor que puedo.

si alguien se sabe el solo, quiere otro tab, o algun comentario mandenme un mail a :
rafa88offspring@hotmail.com
Comments