Rasta Smiley Dudes - Im So Terribly Terribly Sad Chords & Tabs

 

Im So Terribly Terribly Sad Chords & Tabs

Rasta Smiley Dudes Chords & Tabs

Version: 1 Type: Bass Tab 0 ratings
1 star 2 stars 3 stars 4 stars 5 stars
comments

Im So Terribly Terribly Sad Bass Tab

   
Bass Guitar      Iím So Terribly, Terribly Sad       © printie 2002


Intro / outro

G----7-7---5-5-----------------
D---9-9-9-7-7-7---8--8---6-6---
A---------------10-10-10-8-8-8-
E------------------------------

verz
[ Tab from: http://www.guitartabs.cc/tabs/r/rasta_smiley_dudes/im_so_terribly_terribly_sad_btab.html ]
G--9--7--5--5-3--
D-7--5--3--3---1-
A----------------
E----------------

chorus

G---------
D---------
A---------
E-7-5-3-5-

solo - pop n' slap quikly

G--9-9---7-7---5-5---3-3---1-1--
D-------------------------------
A-------------------------------
E-9-9-9-7-7-7-5-5-5-3-3-3-1-1-1-

peace out
Comments