Rasta Smiley Dudes - Big Monkey Chords & Tabs

 

Big Monkey Chords & Tabs

Rasta Smiley Dudes Chords & Tabs

Version: 1 Type: Bass Tab 0 ratings
1 star 2 stars 3 stars 4 stars 5 stars
comments

Big Monkey Bass Tab

No bass for intro 1st verse and 1st chorus second verse goes like this

G-------12--------12-----12----12------
D----12-------10-----12----10---(10)---
A-10-------12-----10------12-----------
E--------------------------------------

Chorus
[ Tab from: http://www.guitartabs.cc/tabs/r/rasta_smiley_dudes/big_monkey_btab.html ]
G-5-5-5-5-5--------------------------0-0-0-0-0-----
D-----------5-5-5-5-5-10-10-10-10-10---------------
A--------------------------------------------------
E--------------------------------------------------

solo
slap 'n' pop

G------0---3-3-3-----0---5-5-5-----0---3-3-3--5-5-3p2------
D--0h3---3-------0h3---3-------0h3---3----------------3-3h5
A----------------------------------------------------------
E----------------------------------------------------------
Comments