Rasmus - Used To Feel Before Chords & Tabs

 

Used To Feel Before Chords & Tabs

Rasmus Chords & Tabs

Version: 1 Type: Tab 0 ratings
1 star 2 stars 3 stars 4 stars 5 stars
comments

Used To Feel Before Tab

Song:Used to feel before
Artist:The Rasmus
Album:Guilty single
Tabbed by:Samuel Smith

In this song you need to use a wah wah pedal. On the main riff you need to move the
wah wah pedal according to the directions given above of the tab.
In the intro have the wah wah pedal in the middle until directions are given.

Intro:
                                                           + o + o +      o
|--------------------------------------------------------------------------|
|--------------------------------------------------------------------------|
|--------------------------------------------------------------------------|
|-------------------------------------0------------------------7-x-9-------|
|--0--7--5-x-7-7-x-x-7-x-5-x-0--x-0h2-------7--5-x-7-7-x-x-9-x-------------|
|----------------------------------------0---------------------------------|

Riff:
 o   + o o  + + o o + o + o + o      + o   +  o o + + o o + o + o +  o    +
|---------------------------------------------------------------------------|
|---------------------------------------------------------------------------|
|---------------------------------------------------------------------------|
|----9--7-x-9-9-x-x-9-x-7-x-2--x-----0-----9--7-x-9-9-x-x-9-x-7-x-2--x----0-|
|-2--7--5-x-7-7-x-x-7-x-5-x-0--x-0h2----2--7--5-x-7-7-x-x-7-x-5-x-0--x-0h2--|
|-0-------------------------------------0-----------------------------------|

Verse:

|-----------------|
|-----------------|
|-----------------|
|--7-x-7-x-6-7-\--|
|--5-x-5-x-4-5-\--|
|-----------------|

Chorus:
                                                                    +o+o+o+o+
|---------------------------------------------------------------------------|
|---------------------------------------------------------------------------|
|-------------------------------------------------------------------2---9-8-|
|--7------2--1--------7-----7------2--1--------7-------7-------7----2-------|
|--7------------4-----7-----7------------4-----7-------7-------7------------|
|--5------------------5-----5------------------5-------5-------5------------|
[ Tab from: http://www.guitartabs.cc/tabs/r/rasmus/used_to_feel_before_tab.html ]
Bridge:
   o              +                 o              +  o  +
|---------------------------------------------------------------------------|
|---------------------------------------------------------------------------|
|---------------------------------------------------------------------------|
|--14p12h14p12h14p12h14p12h14p12h14p12h14p12h14p12-14------\----------------|
|---------------------------------------------------------------------------|
|---------------------------------------------------------------------------|
                                                                        
|---------------------------------------------------------------------------|
|---------------------------------------------------------------------------|
|---------------------------------------------------------------------------|
|-6--/9---/11--11/13----11--13--11--13-\6--/9---/11--11/13--11--13--11--14--|
|---------------------------------------------------------------------------|
|---------------------------------------------------------------------------|
   + o + o + o + o + o +
|------------------------|
|------------------------|
|------------------------|
|-(14)-------------------|
|------------------------|
|------------------------|

Solo:
  +    +  +  o   o     o     +     +    + o + o + o + o + o +   o     +
|---------------------------------------------------------------------------|
|-12------------------------------------------------------------------------|
|-14b--14p12-----------------14p12------14p12h14p12h14p12h14p12-------------|
|------------14--------12h14-------14---------------------------14-12-------|
|----------------12h14------------------------------------------------14-12-|
|---------------------------------------------------------------------------|
   o   +   o   +    o      +           +         o               +   o +     
|---------------------------------------------------------------------------|
|---------------------------------------------------------------------------|
|--------------------------5H--------------------------------------------12-|
|--------------------------------------14p12h14p12h14p12h14p12-x-12h14-12---|
|-14p12h14p12h14p12h14p12---------------------------------------------------|
|---------------------------------------------------------------------------|
 +     +     o     +        o      +   o     +         o +               + 
|---------------------------------------------------------------------------|
|------------------------------------------------------------------------17-|
|---12----------------------------------------------------------------------|
|-x----14p12----------------14ttttttttttttttttttttttttttttttt-14--14-14-----|
|------------14p12----------------------------------------------------------|
|------------------15p12\---------------------------------------------------|
  +      +         +                   +  o  +  o  +      +   o   +      
|---------------------------------------------------------------------------|
|-------------12--15bA.H.-------------10b-----------------9bb-----r---------|
|-------12-14---------------------------------------------------------------|
|-12-14------------------------------------------------------------------2--|
|------------------------------------------------------------------------2--|
|------------------------------------------------------------------------0--|
Comments