Rasmus - Ufolaulu Chords & Tabs

 

Ufolaulu Chords & Tabs

Rasmus Chords & Tabs

Version: 1 Type: Tab 0 ratings
1 star 2 stars 3 stars 4 stars 5 stars
comments

Ufolaulu Tab

   
TAB for: 		guitar
Titel:		Ufolaulu
Artist:		The Rasmus
Album/Single:	-/Ice
Tabbed by: 		Saki Sayuri Kansaki

I made this TAB already a few time ago, but I think now I worked long enough on it so
that it comes close. On a few parts of the bass I'm not exactly sure, so if you know,
please send it to me! Have fun to play! ^^ It's really a nice song! 
(Note: Take an acoustic guitar for a nice sound ^-^)


Tuning: Standard 			Signs: 
Am 	(002210)			~   =   let note ring
F 	(003211)
E 	(022100)
C 	(032010)
A 	(002220)


Intro: (00:00)
	Am			Am
E|----00----00----00----00-|---00----00--0-------------|
H|----11----11----11----11-|---11----11--1-------------|
G|----22----22----22----22-|---22----22--2-------------|
D|-------------------------|---------------------------|
A|--0-----------0----------|-0-----------0-------------|
E|--------0-----------0----|-------0-------------------|

Then comes a small xylophone part


Verse: (00:09)
	Am			F
E|----00----00----00----00--|----11----11----11----11--|
H|----11----11----11----11--|----11----11----11----11--|
G|----22----22----22----22--|----22----22----22----22--|
D|--------------------------|--------3-----------3-----|
A|--0-----------0-----------|--0-----------0-----------|
E|--------0-----------0-----|--------------------------|

	E			Am
E|----00----00----00----00--|----00---00--0------------|
H|----00----00----00----00--|----11---11--1------------|
G|----11----11----11----11--|----22---22--2------------|
D|--------------------------|--------------------------|
A|--------2-----------2-----|--0----------0------------|
E|--0-----------0-----------|-------0------------------|

Then comes the small xylophone part again

	Am			F
E|----00----00----00----00--|----11----11----11----11--|
H|----11----11----11----11--|----11----11----11----11--|
G|----22----22----22----22--|----22----22----22----22--|
D|--------------------------|--------3-----------3-----|
A|--0-----------0-----------|--0-----------0-----------|
E|--------0-----------0-----|--------------------------|

	E			Am
E|----00----00----00----00--|--------------------------|
H|----00----00----00----00--|---11----11----11----11---|
G|----11----11----11----11--|---22----22----22----22---|
D|--------------------------|---22----22----22----22---|
A|--------2-----------2-----|-0-----------0------------|
E|--0-----------0-----------|-------0-----------0------|


Pre-Chorus: (00:41)
   F			     Am
E|----11----11----11----11--|----00----00----00----00--|
H|----11----11----11----11--|----11----11----11----11--|
G|----22----22----22----22--|----22----22----22----22--|
D|--------3-----------3-----|--------2-----------2-----|
A|--0-----------0-----------|--0-----------0-----------|
E|--------------------------|--------------------------|
[ Tab from: http://www.guitartabs.cc/tabs/r/rasmus/ufolaulu_tab.html ]
	F			E
E|----11----11----11----11--|----00----00--0-----------|
H|----11----11----11----11--|----11----11--1-----------|
G|----22----22----22----22--|----22----22--2-----------|
D|--------3-----------3-----|--------------2-----------|
A|--0-----------0-----------|--------2-----2-----------|
E|--------------------------|--0-----------0-----------|
At the last time playing the E just hit the strings down


Chorus: (00:55)
  Am	  C 	F 	E
E|---00-|---00-|---11-|---00-|
H|---11-|---11-|---11-|---00-|
G|---22-|---00-|---22-|---11-|
D|------|------|------|------| 	8x
A|-0----|------|-0----|------|
E|------|-0----|------|-0----|
About the C I'm not exactly sure, but I think it comes close
(Note: Play it 4x, then there's a very small break and then
again 4x. Listen carefully and you'll hear what I mean)


Bridge: (01:25)
  Am 	  C	  F	  E 	  Am 
E|-----0-|-----0-|-----1-|-----0-|-0-|
H|-----1-|-----1-|-----1-|-----0-|-1-|
G|---2---|---0---|---2---|---1---|-2-|
D|-------|-------|-3-----|-------|---|
A|-0-----|-------|-------|-------|-0-|
E|-------|-0-----|-------|-0-----|---|
Again I'm not sure about the C... 


Solo 1: (01:30)
It was hard work for me to figure it out. I don't think that it's correct, but it
comes close in my opinion. Take it as a general direction. ^^ If you know the right
solo, please send it to me! 

E|-------|-----------------------|-----------------------|
H|-3-1-0-|-1---1-0---0-1~------0-|-1---1-0---0-1~------0-|
G|-------|----------------|1-2---|-----------------1-2---|
D|-------|------------____|------|-----------------------|
A|-------|--Start of Solo 2------|-----------------------|
E|-------|--listen careful and you'll hear it------------|

E|-----------------------|-------------------------------|
H|-1---1-0---0-1~------0-|-1---1-0---0-1~------0-1-------|
G|-----------------1-2---|-----------------1-2-----------|
D|-----------------------|-------------------------------|
A|-----------------------|-------------------------------|
E|-----------------------|-------------------------------|


Solo 2: (01:34)
E|-----4---5-|---12---7---4---5-|---12---7---4---5-|---12---7---4---5-|
H|-----------|------------------|------------------|------------------|
G|-----------|------------------|------------------|------------------|
D|-----------|------------------|------------------|------------------|
A|-----------|------------------|------------------|------------------|
E|-----------|------------------|------------------|------------------|


Bridge: (01:45)
  Am 	   C	  F	  E 	  A 
E|-----0-|-----0-|-----1-|-----0-|-0-|
H|-----1-|-----1-|-----1-|-----0-|-2-|
G|---2---|---0---|---2---|---1---|-2-|
D|-------|-------|-3-----|-------|-2-|
A|-0-----|-------|-------|-------|-0-|
E|-------|-0-----|-------|-0-----|-0-|
At the A just hit the strings down



That's it! Feel free to contact me if you have questions! Comments, suggestions,
corrections like always to: nadine.reinartz@web.de
Comments