Rasmus - Rakkauslaulu Chords & Tabs

 

Rakkauslaulu Chords & Tabs

Rasmus Chords & Tabs

Version: 1 Type: Tab 0 ratings
1 star 2 stars 3 stars 4 stars 5 stars
comments

Rakkauslaulu Tab

   
Artist: The Rasmus
Song: Rakkauslaulu
Tabbed by: Robin Linderborg

Riff A
e-----------------------------------------------------------------------------------------
B-----------------------------------------------------------------------------------------
G-----------------------------------------------------------------------------------------
D-----------------------------------------------------------------------------------------
A-----------------------------------------------------------------------------------------
E-4-4-4-4-4-4-4---9-9-9-9-----------------------------------------------------------------

Riff B
e-----------------------------------------------------------------------------------------
B-----------------------------------------------------------------------------------------
G-----------------------------------------------------------------------------------------
D-----------------------------------------------------------------------------------------
A-----------------------------------------------------------------------------------------
E-4--4-4--4-4-4--4--4-4--4-4-4--9--9-9--9-9--11-11-9-9-8-8-5-5----------------------------

[ Tab from: http://www.guitartabs.cc/tabs/r/rasmus/rakkauslaulu_tab.html ]
Riff C
e-----------------------------------------------------------------------------------------
B-----------------------------------------------------------------------------------------
G-17-17-17-17-17--17-17--15-13-15--13--13-15--17-17-17-17-17-17-15-13-15-20---------------
D-----------------------------------------------------------------------------------------
A-----------------------------------------------------------------------------------------
E-----------------------------------------------------------------------------------------

e-----------------------------------------------------------------------------------------
B-----------------------------------------------------------------------------------------
G-17-17-17-17-17-17-15-13--15-13--13-15--17-17-17-17-17--17-15-15--15-13-13--13-15-17-----
D-----------------------------------------------------------------------------------------
A-----------------------------------------------------------------------------------------
E-----------------------------------------------------------------------------------------

The song goes like this:
0:01-0:04 Riff A
0:05-0:11 Talk
0:12-0:45 Repeat Riff B
0:46-1:14 Chorus (Handclapping)
1:15-1:40 Repeat Riff B
1:41-2:09 Chorus (Handclapping)
2:10-2:36 Riff C
2:37-3:36 Chorus (Handclapping) 2x and fade out

Välitää to you all! (Whatever it means)
Comments