Rasmus - Not Like The Other Girls Chords & Tabs

 

Not Like The Other Girls Chords & Tabs

Rasmus Chords & Tabs

Version: 2 Type: Tab 0 ratings
1 star 2 stars 3 stars 4 stars 5 stars
comments

Not Like The Other Girls Tab

The Rasmus 
Not like other girls
Dead Letters
Standard tuning

Hey i realised no1s tried 2 tab this amazing song yet so i thot i mite aswel try it,
coz but i havent got it all yet , ill post more of it as i go along

Intro (piano transcribed for guitar)
Then guitar does the exact same over the top of it
|--7----5---3----2-------------------------------------------------|
|----8----7---5----3-----------------------------------------------|
|------------------------------------------------------------------|
|------------------------------------------------------------------|
|------------------------------------------------------------------|
|------------------------------------------------------------------|
[ Tab from: http://www.guitartabs.cc/tabs/r/rasmus/not_like_the_other_girls_tab_ver_2.html ]
Verse (palm muted) (the same threw out)
|------------------------------------------------------------------|
|------------------------------------------------------------------|
|----------------------------5-------------------------------------|
|-2--------------------------5-------------------------------------|
|-2--------------------------3-------------------------------------|
|-0----------------------------------------------------------------|
(No More Blame.......       (The Flame............

Pre-Chorus (or atleast the start of it)
|------------------------------------------------------------------|
|------------------------------------------------------------------|
|------------------------------------------------------------------|
|--7--9-10---------------------------------------------------------|
|--7--9-10---------------------------------------------------------|
|--5--7-8----------------------------------------------------------|

Soz but thats it for now wen i get more ill update it. if ne1 has ne Comments, questions
or h8 mail , email me and c if i care @ icemantheconquerer@msn.com

#ICE#
Comments