Rasmus - Not Like The Other Girls Chords & Tabs

 

Not Like The Other Girls Chords & Tabs

Rasmus Chords & Tabs

Version: 1 Type: Tab 1 rating
1 star 2 stars 3 stars 4 stars 5 stars
comments

Not Like The Other Girls Tab

   
Song: Not Like the Other Girls
Artist: The Rasmus
Album: Dead Letters
Tabbed by: Lynn Clarke (topo_rocks@hotmail.com)
Tuning: Normal (EADGBe)
Symbols: / = slide (eg: /7)
	 ~ = let ring (eg: 7~)
	 h = hammer on (eg: 7h9)
	 r = release (eg: 7r5)

INTRO (riff 1)
e|-------------------------------------------------|
B|-------------------------------------------------|
G|-------------------------------------------------|
D|-/9--11--7-------9---6-------7---4-------6---2---| repeat x3
A|-------------------------------------------------|
E|-------------------------------------------------|

e|-------------------------------------------------|
B|-------------------------------------------------|
G|-------------------------------------------------|
D|-/9--11--7---6---9---6---7~----------------------|
A|-------------------------------------------------|
E|-------------------------------------------------|

Play the whole intro 3 times. Bass and drums come in on the second.

VERSE
e|-x-x-x-x-x-x-x-x-x-x-x-x-x-x-x-x-x-x-x-x-x-x-x-x-|
B|-x-x-x-x-x-x-x-x-x-x-x-x-x-x-x-x-x-x-x-x-x-x-x-x-|
G|-x-x-x-x-x-x-x-x-x-x-x-x-x-x-x-x-x-x-x-x-x-x-x-x-|
D|-------------------------------------------------|
A|-------------------------------------------------|
E|-------------------------------------------------|

While this plays riff 1 is repeated twice, with a different
variation at the end:

e|-------------------------------------------------|
B|-------------------------------------------------|
G|-------------------------------------------------|
D|-/9--11--7-------9---6-------7---4-------6---2---| repeat x7
A|-------------------------------------------------|
E|-------------------------------------------------|
   No more blame... etc...      

e|-------------------------------------------------|
B|-------------------------------------------------|
G|-------------------------------------------------|
D|-/9--11--7---6---9---6---7~----------------------|
A|-------------------------------------------------|
E|-------------------------------------------------|
...my girl

This runs until (1:44).

BRIDGE
e|-------------------------------------------------|
B|-------------------------------------------------|
G|-4-6-7~------------------------------------------|
D|-4-4-7~----------------------4~------------------|
A|-2-4-5~----------------------4~------------------|
E|-----------------------------2~------------------|
	       Should have seen...      ...this way

e|-------------------------------------------------|
B|-------------------------------------------------|
G|-4-6-7~------------------------------------------|
D|-4-4-7~----------------------4~----------6~------|
A|-2-4-5~----------------------4~----------6~------|
E|-----------------------------2~----------4~------|
	       Should have known...     ...up to
e|-------------------------------------------------|
B|-------------------------------------------------|
G|-4-6-7~------------------------------------------|
D|-4-4-7~----------------------4~----------6~------|
A|-2-4-5~----------------------4~----------6~------|
E|-----------------------------2~----------4~------|
               When you've loved......someone, you
e|-------------------------------------------------|
B|-------------------------------------------------|
G|-------------------------------------------------|
D|-7~----------11~---------------------------------|
A|-7~----------11~---------------------------------|
E|-5~----------9~----------------------------------|
   know what it feels like to lose
e|-------------------------------------------------|
B|-------------------------------------------------|
G|-------------------------4---7---14--13~---------|
D|-------------------------4---7---14--13~---------|
A|-2-4-5-2-4-5-2-4-5-2-4-5-2---5---12--11~---------|
E|-------------------------------------------------|

CHORUS
e|-------------------------------------------------|
B|-------------------------------------------------|
G|-2~--------------4---6---7~----------------------|
D|-2~--------------4---6---7~----------------------|
A|-0~--------------2---4---5~----------------------|
E|-------------------------------------------------|
   She's fading away... etc.

e|-------------------------------------------------|
B|-------------------------------------------------|
G|-5~---------------2---4---6~---------------------|
D|-5~---------------2---4---6~---------------------|
A|-7~---------------0---2---4~---------------------|
E|-------------------------------------------------|

Repeat all that twice. Then:
[ Tab from: http://www.guitartabs.cc/tabs/r/rasmus/not_like_the_other_girls_tab.html ]
e|-------------------------------------------------|
B|-------------------------------------------------|
G|-------------------------------------------------|
D|-/9--11--7-------9---6-------7---4-------6---2---| 
A|-------------------------------------------------|
E|-------------------------------------------------|

e|-------------------------------------------------|
B|-------------------------------------------------|
G|-------------------------------------------------|
D|-/9--11--7---6---9---6---7~----------------------|
A|-------------------------------------------------|
E|-------------------------------------------------|

Then the verse again, just the same but only half as long.
After that, the bridge again, followed by the chorus. Then there's
this wierd distortion solo:

e|-------------------------------------------------|
B|-------------------------------------------------|
G|-------------------------------------------------|
D|-------------------------------------------------|
A|-2-4-4---4---4---4~------------------2---0-------|
E|---------------------------------------------4-0-|

e|-------------------------------------------------|
B|-------------------------------------------------|
G|-------------------------------------------------|
D|-------------------------------------------------|
A|-----------------------------0---2-0-4-----------|
E|-2~----------------------2-4---------------------|

e|-------------------------------------------------|
B|-------------------------------------------------|
G|-------------------------------------------------|
D|-------------------------------------------------|
A|-2-----------0-----------------------------------|
E|-------------------------4-----------5-----------|

e|-------------------------------------------------|
B|-------------------------------------------------|
G|-------------------------------------6-----------|
D|-------------------------------------------------|
A|-------------------------------------------------|
E|-4-----------2-----------------------------------|

e|-------------------------------------------------|
B|-------------------------------------------------|
G|-4-241-------------------6-4-2-1-----2---1-------|
D|-------2-4h7-4-------------------4-2-------------|
A|---------------------------------------------4---|
E|-------------------------------------------------|

e|-------------------------------------------------|
B|-------------------------------------------------|
G|-------------2---1---4---2---1---4---2---1h2r1---|
D|-------------------------------------------------|
A|-(4)---------------------------------------------|
E|-------------------------------------------------|

e|-------------------------------------------------|
B|-------------------------------------------------|
G|-------------2---1---4---2---1---4---2---1h2r1---|
D|-------------------------------------------------|
A|-5-----------------------------------------------|
E|-------------------------------------------------|

e|-------------------------------------------------|
B|-------------------------------------------------|
G|-------------------------------------------------|
D|-------------------------------------------------|
A|-4-----------4-2-2-0-----------------4---2-4-5-4-|
E|---------------------5-4-4-2-2-0-0-2-------------|

e|-------------------------------------------------|
B|-------------------------------------------------|
G|-------------------------------------------------|
D|-------------------------------------4---2-4-5-4-|
A|-7-5-4-2-4-5-7-9-7-5-4-2-4-5-4-2-0---------------|
E|-----------------------------------4-------------|

e|-------------------------------------------------|
B|-------------------------------------------------|
G|-------------------------------------------------|
D|-------------------------------------4---2-4-5-4-|
A|-7-5-4-2-4-5-7-9-7-5-4-2-4-5-4-2-0---------------|
E|-----------------------------------4-------------|

e|-------------------------------------------------|
B|-------------------------------------------------|
G|-------------------------------------------------|
D|-------------------------------------------------|
A|-7-5-4-2-4-5-7-9-7-5-4-2-4-5-4-2-0---4-------4-5-|
E|-----------------------------------4-------------|

e|-------------------------------------------------|
B|-------------------------------------------------|
G|-------------------------------------------------|
D|-------------------------------------------------|
A|-6-------6-8-12~---------11~---------------------|
E|-------------------------------------------------|

Repeat the chorus... then finish with riff 1 played once.
There! Done. 
Comments