Rasmus - No Fear Chords & Tabs

 

No Fear Chords & Tabs

Rasmus Chords & Tabs

Version: 4 Type: Tab

No Fear Tab

Artist: The Rasmus
Song: No Fear
Album: Hide From The Sun
By: Timsystem@hotmail.com
Tuning: Standard

Hello everybody! I know, there are a lot of tabs of this song but I
think this tab is more similar of the original song. It's 90 or more
pourcents right with a keybords tabs in the intro and in the end. So
enjoy and please, rate it. Thanks 

Intro (0:00) 2x
|-4-----4-----4---5-----5-----5---4----7-----7---7-----7-----7----|
|---4-----4-----4---4-----4-----4---4----4-----4---6-----6-----6--|
|-----6-----6---------6-----6---------4----4---------4-----4------|
|-----------------------------------------------------------------|
|-----------------------------------------------------------------|
|-----------------------------------------------------------------|

Chorus 1(0:18) 2x
|-----------------------------------------------------------------|
|-----------------------------------------------------------------|
|-----------------------------4--4-4--4-4--4----------------------|
|-6--6-6--6-6--6-2-2--2-2--2--4--4-4--4-4--4-4-4--4-4--4----------|
|-6--6-6--6-6--6-2-2--2-2--2--2--2-2--2-2--2-4-4--4-4--4----------|
|-4--4-4--4-4--4-0-0--0-0--0-----------------2-2--2-2--2----------|

After the 2nd time
|-----------------------------------------------------------------|
|-----------------------------------------------------------------|
|-----------------------------------------------------------------|
|-2---------------------------------------------------------------|
|-2---------------------------------------------------------------|
|-0---7-4-7--7-4/0------------------------------------------------|

Verse (0:38) 2x
|-----------------------------------------------------------------|
|-4-----4---4---4---4---4-----4----4---4--------------------------|
|-----4---4-----------4---4------4---4----------------------------|
|-----------------------------------------------------------------|
|---------------------------------(1st-time)2-6-5-----------------|
|---------------------------------(2nd-time)7-4-7-----------------|

Chorus 1(1:11) 2x
Verse (1:31) 2x
[ Tab from: http://www.guitartabs.cc/tabs/r/rasmus/no_fear_tab_ver_4.html ]
Bridge whith the intro (2:24)
|--------------------------------------------------------------------|
|--------------------------------------------------------------------|
|---------------4--4-------------------------------------------------|
|-6--6---2--2---4--4---4--4------------------------------------------|
|-6--6---2--2---2--2---4--4------------------------------------------|
|-4--4---0--0----------2--2------------------------------------------|

|--------------------------------------------------------------------|
|--------------------------------------------------------------------|
|---------------4--4-------------------------------------------------|
|-6--6---2--2---4--4-------------------------------------------------|
|-6--6---2--2---2--2-------------------------------------------------|
|-4--4---0--0--------------------------------------------------------|

Solo (2:36)
|--------------------------------------------------------------------|
|--------------------------------------------------------------------|
|--------------------------------------------------------------------|
|-6---8--6-4-3-4---3-3-4---3-3-3-1-1---------------------------------|
|--------------------------------------------------------------------|
|--------------------------------------------------------------------|

|-15-17-18b-13-13-13--15-17-18b-14-14-14--15-17-18b-13-13-13--10-8-8-|
|--------------------------------------------------------------------|
|--------------------------------------------------------------------|
|--------------------------------------------------------------------|
|--------------------------------------------------------------------|
|--------------------------------------------------------------------|

Chorus 2(2:57) 4x
|--------------------------------------------------------------------|
|--------------------------------------------------------------------|
|-----------------------------6--6-6--6-6--6-------------------------|
|-8--8-8--8-8--8-6-6--6-6--6--6--6-6--6-6--6-4-4--4-4--4-------------|
|-8--8-8--8-8--8-4-4--4-4--4--4--4-4--4-4--4-4-4--4-4--4-------------|
|-6--6-6--6-6--6-2-2--2-2--2-----------------2-2--2-2--2-------------|

End (3:29)

|-13----13----13---14----14----14---13----16----16---16----16----16-----|
|---14----14----14---14----14----14---14----14----14---16----16----16---|
|-----15----15---------15----15---------13----13---------13----13----16-|
|-----------------------------------------------------------------------|
|-----------------------------------------------------------------------|
|-----------------------------------------------------------------------|

That's all.