Rasmus - No Fear Chords & Tabs

 

No Fear Chords & Tabs

Rasmus Chords & Tabs

Version: 3 Type: Tab

No Fear Tab

i like this song a lot..the when i surf the net..there's no one tab this accurately yet..
so i figured it out myself..hehe!
this is my first tab..im 100% sure this is accurate..SO PLEASE RATE MY TAB..
give me 5 stars! hehe!any question..? 

need guitarist!? contact me!! hehe!
friendster and email: deathkn1ght666@yahoo.com cp#: +639186124462 , +9656416359
good luck guys..and god bless..

"No Fear"
by The Rasmus

Intro
[Keyboards:transcribed for guitar..play this twice..]
"no fear..ha aa aa.."
e|--------------------------------------------------------------------------------|
B|-16-----16-----16----16-----16-----16----16-----19-----19----19-----19-----19---|
G|---17-----17-----17----13-----13-----14----15-----15-----15----16-----16-----16-|
D|-----18-----18-----------14-----14-----------16-----16-----------16-----16------|
A|--------------------------------------------------------------------------------|
E|--------------------------------------------------------------------------------|

[play twice with the keyboards..]
e|--------------------------------------------------------|e-guitarist played some------|
B|--------------------------------------------------------|B-part of "pinched harmonics"|
G|------------------------------4-4--4-4--4---------------|G-----------/3^~-------------|
D|-6~-6-6--6-6--6--2-2--2-2--2--4-4--4-4--4--4-4--4-4--6~-|D----------------------------|    
A|-6~-6-6--6-6--6--2-2--2-2--2--2-2--2-2--2--4-4--4-4--6~-|A----------------------------|
E|-4~-4-4--4-4--4--0-0--0-0--0--2-2--2-2--2--2-2--2-2--4~-|E----------------------------|

[then play this after the intro..]
e|--------------|-------------------|
B|--------------|-------------------|
G|--------------|-or you------------|
D|-10-\8/-10-10-|-can play----------|
A|-x--\x/-x--x--|-this..------------|
E|-8--\6/-8--8--|---------8\6/8--8--|

Verse 
[play this twice and do a "palm mute" and listen carefully so you'll know when to change the chords..]
"girl.."
e|---|---|---|---|---|---|---|--after he said "To go deeper"----|
B|---|---|---|---|---|---|---|------9---10----------------------|
G|---|-8-|---|---|-6-|-8-|---|---------------8^~----------------|
D|-6-|-8-|-9-|-4-|-6-|-8-|-9-|----------------------------------|
A|-6-|-6-|-9-|-4-|-4-|-6-|-9-|----------------------------------|
E|-4-|---|-7-|-2-|---|---|-7-|----------------------------------|

[then play this before the chorus kicks in..]
"chose the reaper"
e|-----------|---------------|
B|-----------|---------------|
G|-----------|-or you--------|
D|-10-\8/-10-|-can play------|
A|-x--\x/-x--|-this..--------|
E|-8--\6/-8--|---------8\6/8-|

Chorus
"no fear.."
[play twice..with the intro keyboards..]
e|--------------------------------------------------------|e-guitarist played some--------|
B|--------------------------------------------------------|B-part of "pinched harmonics"--|
G|------------------------------4-4--4-4--4---------------|G------(3^)~-------------------|
D|-6~-6-6--6-6--6--2-2--2-2--2--4-4--4-4--4--4-4--4-4--6~-|D------------------------------|
A|-6~-6-6--6-6--6--2-2--2-2--2--2-2--2-2--2--4-4--4-4--6~-|A------------------------------|
E|-4~-4-4--4-4--4--0-0--0-0--0--2-2--2-2--2--2-2--2-2--4~-|E------------------------------|
[ Tab from: http://www.guitartabs.cc/tabs/r/rasmus/no_fear_tab_ver_3.html ]
[then play this..]
e|--------------|-------------------|
B|--------------|-------------------|
G|--------------|-or you------------|
D|-10-\8/-10-10-|-can play----------|
A|-x--\x/-x--x--|-this..------------|
E|-8--\6/-8--8--|---------8\6/8--8--|

Verse
[play this twice and do a "palm mute" and listen carefully so you'll know when to change the chords..]
"girl"
e|---|---|---|---|---|---|---|--after he said "With no mercy"----|
B|---|---|---|---|---|---|---|----------9---10-------------------|
G|---|-8-|---|---|-6-|-8-|---|------------------8^~--------------|
D|-6-|-8-|-9-|-4-|-6-|-8-|-9-|-----------------------------------| 
A|-6-|-6-|-9-|-4-|-4-|-6-|-9-|-----------------------------------|
E|-4-|---|-7-|-2-|---|---|-7-|-----------------------------------|

[then play this before the chorus kicks in..]
"From here to eternity.."
e|-----------|---------------|
B|-----------|---------------|
G|-----------|-or you--------|
D|-10-\8/-10-|-can play------|
A|-x--\x/-x--|-this..--------|
E|-8--\6/-8--|---------8\6/8-|

Chorus
"no fear.."
[play twice..with the intro keyboards..]
e|--------------------------------------------------------|e-guitarist played some--------|
B|--------------------------------------------------------|B-part of "pinched harmonics"--|
G|------------------------------4-4--4-4--4---------------|G------(3^)~-------------------|
D|-6~-6-6--6-6--6--2-2--2-2--2--4-4--4-4--4--4-4--4-4--6~-|D------------------------------|
A|-6~-6-6--6-6--6--2-2--2-2--2--2-2--2-2--2--4-4--4-4--6~-|A------------------------------|
E|-4~-4-4--4-4--4--0-0--0-0--0--2-2--2-2--2--2-2--2-2--4~-|E------------------------------|

[the play this twice..keyboards cont'd playing..]
"ha aa aa..destination darkness.."
e|--------------------------|
B|--------------------------|
G|--------------4-4---------|
D|--6-6---2-2---4-4---4-4---|
A|--6-6---2-2---2-2---4-4---|
E|--4-4---0-0---2-2---2-2---|

[play twice..this time do this a lil bit faster..]
e|-----------|---------------|
B|-----------|---------------|
G|-----------|-or you--------|
D|-10-\8/-10-|-can play------|
A|-x--\x/-x--|-this..--------|
E|-8--\6/-8--|---------8\6/8-|

Interlude
[then play twice..keyboards cont'd playing..]
e|-------------------------------------------------------|
B|-------------------------------------------------------|
G|------------------------------4-4--4-4--4--------------|
D|-6~-6-6--6-6--6--2-2--2-2--2--4-4--4-4--4--4-4--4-4--6-|
A|-6~-6-6--6-6--6--2-2--2-2--2--2-2--2-2--2--4-4--4-4--6-|
E|-4~-4-4--4-4--4--0-0--0-0--0--2-2--2-2--2--2-2--2-2--4-|

[while playing the interlude part..lead guitar plays this..]
e|--------------------------------------|
B|--------------------------------------|
G|--------------------------------------|
D|--6~--8~--1-4-1-4~---1--/2/4~--4/6\1~-|
A|--------------------------------------|
E|--------------------------------------|

e--------19^--------------19^-------------19^---------|
B-/17-19-----\9~---/17-19-----\7~---/17-19----\5~-----|
G-----------------------------------------------------|
D-----------------------------------------------------|
A-----------------------------------------------------|
E-----------------------------------------------------|

e|--------------------|
B|-5-4/5--4-----------|
G|-----------6-5-3~---|
D|--------------------|
A|--------------------|
E|--------------------|

[repeat chorus..with different strumming..and that's it!]

/ = slide up
\ = slide down
~ = vibrate
^ = bend
x = muted