Rasmus - Night After Night Out Of The Shadows Chords & Tabs

 

Night After Night Out Of The Shadows Chords & Tabs

Rasmus Chords & Tabs

Version: 1 Type: Tab

Night After Night Out Of The Shadows Tab

Artist: The Rasmus
Song: Night After Nigh(out of the Shadows)
Album: Hide From the Sun
By: Timsystem@hotmail.com
Tuning: Standard

Intro 1(0:00)

|-----------------------------------------------------------------|
|-----------------------------------------------------------------|
|-----------------------------------------------------------------|
|-2-2-4p2-2-5p2-4p2-2--2-2-2-2-------------------2-2-(2222)-------|
|-------------------------------2-2-5p2-2-5p-2-2------------------|
|-----------------------------------------------------------------|
[ Tab from: http://www.guitartabs.cc/tabs/r/rasmus/night_after_night_out_of_the_shadows_tab.html ]
|-----------------------------------------------------------------|
|-----------------------------------------------------------------|
|-----------------------------------------------------------------|
|-2-2-4p2-2-5p2-4p2-2--2-2-2-2------------------------------------|
|-------------------------------2-2-5p2-2-5p-2-2-9/4--------------|
|------------------------------------------------7/2--------------|

Intro 2 (0:09)2x
|-----------------------------------------------------------------|
|-----------------------------------------------------------------|
|-----------------------------------------------------------------|
|-2-2-4p2-2-5p2-4p2-2--2-2-2-2-------------------2-2-(2222)-------|
|-------------------------------2-2-5p2-2-5p-2-2------------------|
|-----------------------------------------------------------------|

Verse (0:28) Guitar 1
|-----------------------------------------------------------------|
|-----------------------------------------------------------------|
|-2-2-2-2-2-2-2-2-----------------2-2-2-2-2-2-2-2-----------------|
|-----------------2-2-2-2-2-2-2-2-----------------2-2-2-2-2-2-2-2-|
|-----------------------------------------------------------------|
|-----------------------------------------------------------------|