Rasmus - In The Shadows Chords & Tabs

 

In The Shadows Chords & Tabs

Rasmus Chords & Tabs

Version: 1 Type: Bass Tab 0 ratings
1 star 2 stars 3 stars 4 stars 5 stars
comments

In The Shadows Bass Tab

ARTIST: THE RASMUS
SONG: IN THE SHADOWS
ALBUM: DEAD LETTERS
TABBED BY: Danny (dan_rocks_uk@hotmail.com)

Top song, enjoy! and remember Fran...


INTRO: The intro is on bass with FX.
-------------------------------------------------------------
-------------4-4-4-2-4-6-7-9------------4-4-6-6-7------------
-5-5-5-0-5-4-----------------5-5-0-4-5-----------------------
-------------------------------------------------------------

MAIN RIFF:
Intro repeated with guitars.
[ Tab from: http://www.guitartabs.cc/tabs/r/rasmus/in_the_shadows_btab.html ]
VERSE:
-------------------------------------
-------------------------------------
-5--5--5--5--------------------------
-------------2--2--2--2-------------- x7
then
-------------------------------------
-------------------------------------
--5-5-5-5-5-5-5----------------------
----------------2-1-0----------------

CHORUS:
-----------------------------------------------------------------
-----------------------------------------------------------------
-5-5-5-5-5-5-5-5------------------2-2-2-2-2-2-2-2----------------
----------------2-2-2-2-2-2-2-2-------------------2-2-2-2-2-2-2-2
Comments