Rasmus - Immortal Chords & Tabs

 

Immortal Chords & Tabs

Rasmus Chords & Tabs

Version: 1 Type: Tab

Immortal Tab

Rasmus : Immortal

Tuning Standard

Intro 
[ Tab from: http://www.guitartabs.cc/tabs/r/rasmus/immortal_tab.html ]
|---------------------------------------------|
|---------------------------------------------|
|---------------------------------------------|
|-------------------------0000----------------|
|-------1-1--4444-3-1----------3-1--1-3-1-----|
|-3-3-0---------------3------------3------3-0-|

|---------------------------------------------|
|---------------------------------------------|
|---------------------------------------------|
|-7-5-3---------------------------------------|
|-5-3-1---------------------------------------|
|-------0-------------------------------------|