Rasmus - Ice Chords & Tabs

 

Ice Chords & Tabs

Rasmus Chords & Tabs

Version: 1 Type: Tab 0 ratings
1 star 2 stars 3 stars 4 stars 5 stars
comments

Ice Tab

   
Rasmus : Ice 

Intro 

|--------------------------------------------|
|--------------------------------------------|
|--------------------------------------------|
|-222------------------------------------222-|
|-222-5-3-2-0-------2-0---0-2-3--2-2-3-0-222-|
|-000---------3-3-3-----3----------------000-|
[ Tab from: http://www.guitartabs.cc/tabs/r/rasmus/ice_tab.html ]
|--------------------------------------------|
|--------------------------------------------|
|--------------------------------------------|
|-222------------------------------------222-|
|-222-5-3-2-0-------2-0---0-2-3--2-2-3-0-222-|
|-000---------3-3-3-----3----------------000-|

Verse : E5 ,G5 , A5 , D5
Comments