Rasmus - First Day Of My Life Chords & Tabs

 

First Day Of My Life Chords & Tabs

Rasmus Chords & Tabs

Version: 2 Type: Tab 0 ratings
1 star 2 stars 3 stars 4 stars 5 stars
comments

First Day Of My Life Tab

   
Rasmus-first day of my life

Intro

E-0-0-------------------------|
A-0-0-7777-9999-7777----------|
D-0-0-------------------------|
G-----------------------------|
B-----------------------------|
E-----------------------------|x 3

E-0-0------0-0----------------|
A-0-0-7777-0-0-7777-----------|
D-0-0------0-0----------------|
G-----------------------------|
B-----------------------------|
E-----------------------------|

E-0-0-------------------------|
A-0-0-7777-9999-7777----------|
D-0-0-------------------------|
G-----------------------------|
B-----------------------------|
E-----------------------------|x 3

E-0-0------0-0----------------|
A-0-0-7777-0-0-7777-----------|
D-0-0------0-0----------------|
G-----------------------------|
B-----------------------------|
E-----------------------------| i always ignore the palm mute in the
                               intro but you can add it if you want

Verse

the verse aint perfect but it dnt sound like much apart from drums
anyway

E-----------------------------|
A-7-7-7-7-7-7-7-7-7-7-7-7-7-7-|
D-----------------------------|
G-----------------------------|
B-----------------------------|
E-----------------------------|  just keep playing this until you cant
pm............................  the drone in the background anymore

Pre chorus + chorus

Just after, 'if i do something wrong'

E-2-2-2-2--2------------------|
A-2-2-2-2--2------------------|
D-2-2-2-2--2------------------|
G-----------------------------|
B-----------------------------|
E-----------------------------| let the last one ring

then

E-4-3-1--0-----1-----0-----1-----0------1-----0-----1-----0-----4-3-2-1-|
A--------0-----3-----0-----3-----0------3-----0-----3-----0-----6-5-4-3-|
D--------0-----3-----0-----3-----0------3-----0-----3-----0-----6-5-4-3-|
G-----------------------------------------------------------------------|
B-----------------------------------------------------------------------|
E-----------------------------------------------------------------------|
i know you can probably hear some odd notes in the chorus but im pretty
sure thats bass

that shud take you to the end of the chorus where you then play

E-0-0-------------------------|
A-0-0-7777-9999-7777----------|
D-0-0-------------------------|
G-----------------------------|
B-----------------------------|
E-----------------------------|x 3

E-0-0------0-0----------------|
A-0-0-7777-0-0-7777-----------|
D-0-0------0-0----------------|
G-----------------------------|
B-----------------------------|
E-----------------------------|

then repeat the same for the second verse then play

[ Tab from: http://www.guitartabs.cc/tabs/r/rasmus/first_day_of_my_life_tab_ver_2.html ]
E-2-2-2-2--2------------------|
A-2-2-2-2--2------------------|
D-2-2-2-2--2------------------|
G-----------------------------|
B-----------------------------|
E-----------------------------| let the last one ring

E--0-----1-----0-----1-----0------1-----0-----1-----0-----4-3-2-1-|
A--0-----3-----0-----3-----0------3-----0-----3-----0-----6-5-4-3-|
D--0-----3-----0-----3-----0------3-----0-----3-----0-----6-5-4-3-|
G-----------------------------------------------------------------|
B-----------------------------------------------------------------|
E-----------------------------------------------------------------|

E-0-0-------------------------|
A-0-0-7777-9999-7777----------|
D-0-0-------------------------|
G-----------------------------|
B-----------------------------|
E-----------------------------|x 3

E-0-0------0-0----------------|
A-0-0-7777-0-0-7777-----------|
D-0-0------0-0----------------|
G-----------------------------|
B-----------------------------|
E-----------------------------|


bridge

i think this is right, just listen to the notes in the background
E--------------------------------------|
A-1----3----1----3----1----3----1----3-|
D--------------------------------------|
G--------------------------------------|
B--------------------------------------|

E--0-----1-----0-----1-----0------1-----0-----1-----0-----4-3-2-1-|
A--0-----3-----0-----3-----0------3-----0-----3-----0-----6-5-4-3-|
D--0-----3-----0-----3-----0------3-----0-----3-----0-----6-5-4-3-|
G-----------------------------------------------------------------|
B-----------------------------------------------------------------|
E-----------------------------------------------------------------|

E--0-----4-3-2-1--0-----4-3-2-1-|
A--0-----6-5-4-3--0-----6-5-4-3-|
D--0-----6-5-4-3--0-----6-5-4-3-|
G-------------------------------|
B-------------------------------|
E-------------------------------|

E-8--8--8--8--7-7-7-7-6-6-6-6-5-5-5-5-4-4-4-4-3-3-3-3-2-2-2-2-1-1-1-1-|
A-10-10-10-10-9-9-9-9-8-8-8-8-7-7-7-7-6-6-6-6-5-5-5-5-4-4-4-4-3-3-3-3-|
D-10-10-10-10-9-9-9-9-8-8-8-8-7-7-7-7-6-6-6-6-5-5-5-5-4-4-4-4-3-3-3-3-|
G---------------------------------------------------------------------|
B---------------------------------------------------------------------|
E---------------------------------------------------------------------|

E-0-0-------------------------|
A-0-0-7777-9999-7777----------|
D-0-0-------------------------|
G-----------------------------|
B-----------------------------|
E-----------------------------|x 3

E-0-0------0-0-------0-0------|
A-0-0-7777-0-0-7777--0-0------|
D-0-0------0-0-------0-0------|
G-----------------------------|
B-----------------------------|
E-----------------------------|
Comments