Rascal Flatts - Where You Are Chords & Tabs

 

Where You Are Chords & Tabs

Rascal Flatts Chords & Tabs

Version: 1 Type: Tab 0 ratings
1 star 2 stars 3 stars 4 stars 5 stars
comments

Where You Are Tab

   
this is pretty simple its just the open e riff
[ Tab from: http://www.guitartabs.cc/tabs/r/rascal_flatts/where_you_are_tab.html ]
    B  C#min  E
e ----------------------|
b ----------------------|
g --4---6--(6)/7--------|
d --4---6--(6)/9--------|   x2         the parentheses mean play the chord
a --2---4--(4)/9--------|            again and slide up to the 9 9 7
E ----------------------|


    A    G#m   B       A
e -----------------------|
b -----------------------|
g --14---13----4-------2-|
d --14---13----4-------2-|
a --12---11----2-------0-|
E -----------------------|


repeat variations of the same chords through the entire song
Comments