Rascal Flatts - What Hurts The Most Chords & Tabs

 

What Hurts The Most Chords & Tabs

Rascal Flatts Chords & Tabs

Version: 1 Type: Tab

What Hurts The Most Tab

rascal flatts- what hurts the most (solo)

standard tuning

^- bend 1/2 step
^^-bend full step
*- prebend 1/2 step
R- release bend
/- slide up
p- pull-off
h- hammer-on
~- vibrato

-----------------------------------------------------|
-----------------------------------------------------|
--/10--12-12-13--15-15^^-----15-13-13--12-12--10-10--|
-----------------------------------------------------|
-----------------------------------------------------|
-----------------------------------------------------|
[ Tab from: http://www.guitartabs.cc/tabs/r/rascal_flatts/what_hurts_the_most_tab.html ]
----------------------------------------------------|
--------9-11-11/13-13-13-13/16-16-16-16/18-18-18-18-|
-/10-12---------------------------------------------|
----------------------------------------------------|
----------------------------------------------------|
----------------------------------------------------|

--------------------------------------------------------|
-20-21-20^----*20Rp18-----------------------------------|
----------------------20-18-17--------------------------|
------------------------------20-18-20-18-17------------|
--------------------------------------------18-18/20-~~-|
--------------------------------------------------------|

any comments/ corrections are welcome... =]