Rascal Flatts - Mayberry Chords & Tabs

 

Mayberry Chords & Tabs

Rascal Flatts Chords & Tabs

Version: 1 Type: Tab 0 ratings
1 star 2 stars 3 stars 4 stars 5 stars
comments

Mayberry Tab

   
-----------------------------------------------------------------------------
			     MAYBERRY  Rascal Flatts
-----------------------------------------------------------------------------
Tabbed by: udprosperity (Tom)
Email: elkirbydiablo@aol.com

Tuning: Standard (EADGBe)
CAPO 2

Hey, I saw no one had written a tab for this song, and thats a shame, cause it is an
amazing song, so I have to fix that. Just fill in your own strum patterns and enjoy!

INTRO- E	Esus
e|-----0--------0--|
B|-----0--------0-|
G|-----1--------2-|x4
D|-----2--------2--|
A|-----2--------2-|
E|-----0--------0-|

VERSE- E      F#      A2     E	  	
e|-----0------2-------0------0--|
B|-----0------2-------0------0--|
G|-----1------3-------2------1--|X4
D|-----2------4-------2------2--|
A|-----2------4-------0------2--|
E|-----0------2-------x------0--|
[ Tab from: http://www.guitartabs.cc/tabs/r/rascal_flatts/mayberry_tab.html ]
CHORUS-G    C	 Am    D    G  Cadd9  D    G    C    D    B   Em    C    D 
e|-----3----0----0----2----3----3----2----3----0----2----2----0----0----2--|
B|-----3----1----1----3----3----3----3----3----1----3----4----0----1----3--|
G|-----0----0----2----2----0----0----2----0----0----2----4----0----0----2--|
D|-----0----2----2----0----0----x----0----0----2----0----4----2----2----0--|
A|-----x----3----0----x----x----3----x----x----3----x----2----2----3----x--|
E|-----3----x----x----x----3----x----x----3----x----x----x----0----x----x--|



BRIDGE-A      D	      E
e|-----0------2------0--|
B|-----2------3------0-|
G|-----2------2------1-|x3
D|-----2------0------2--|
A|-----0------x------2-|
E|-----x------x------0--|
    Bm    A    D    E
e|---2----0----2----0--|
B|---3----2----3----0--|
G|---4----2----2----1--|
D|---4----2----0----2--|
A|---2----0----x----2--|
E|---x----x----x----0--|
Comments