Rapture - Out Of The Races And Onto The Tracks Chords & Tabs

 

Out Of The Races And Onto The Tracks Chords & Tabs

Rapture Chords & Tabs

Version: 1 Type: Bass Tab 0 ratings
1 star 2 stars 3 stars 4 stars 5 stars
comments

Out Of The Races And Onto The Tracks Bass Tab

I know how great this band is, but as I looked for this tab on line I couldn't find it 
So I was like #$%^ that I'm doing it myself acctually my friend helped me...this is my 
tab, and I'm doing it on a 3/4 acoustic guitar...have mercy.


TheBizarreShow@yahoo.com

 intro
E--0-----5-7------0-----5-7---5----------------------------------------|
A----7-7-----5-7----7-7-----5------------------------------------------|
D----------------------------------------------------------------------|
G----------------------------------------------------------------------|
 Do this 8x's

E--0---0----0---0--------------------------------------------------------------|
A---7-7--7-7--7-7--7-7---------------------------------------------------------|
D------------------------------------------------------------------------------|
G------------------------------------------------------------------------------|
Do this 8X's
[ Tab from: http://www.guitartabs.cc/tabs/r/rapture/out_of_the_races_and_onto_the_tracks_btab.html ]
Pre Verse
E---------------3-----3-------0----0-----0----0-------------------------------|
A--0-----0----------------------7-7--7-7---7-7--7-7---------------------------|
D---7-7----7-7----5-5---5-5---------------------------------------------------|
G-----------------------------------------------------------------------------|

E-0-0-0-0-0-0-0-0-0-0-0-0-0-0-0-0-------|
A---------------------------------------|
D---------------------------------------|
G---------------------------------------|

Go back to Pre Verse


Bass solo
E--7-----7----7-----7------8------8------8------8------------------------------|
A------------------------------------------------------------------------------|
D----9-9---9-9--9-9---9-9----10-10--10-10--10-10--10---------------------------|
G------------------------------------------------------------------------------|

Just repeat as necessary Tell me what you think...please correct me! And if someone 
the guitar tab I will call you god!
Comments