Rapture - House Of Jealous Lovers Chords & Tabs

 

House Of Jealous Lovers Chords & Tabs

Rapture Chords & Tabs

Version: 3 Type: Bass Tab 0 ratings
1 star 2 stars 3 stars 4 stars 5 stars
comments

House Of Jealous Lovers Bass Tab

House Of Jealous Lovers
by The Rapture
Bass Tab by ironcladjoel@yahoo.com

Intro
g--------|
d--------|
a--------|
e-88--88-|  Bend a little. Maybe.

Riff 1
g------------------------------|
d-----6\------------6\---------|
a-88-----66-99-6-88----66-99-6-|
e------------------------------|
Loop on this. Slide every now and then.It's a bit tricky, so try it with headphones on for a while.

[ Tab from: http://www.guitartabs.cc/tabs/r/rapture/house_of_jealous_lovers_btab_ver_3.html ]
Riff 2
g-----------------------------------------------------------------------|
d------6-88--8----------6-88-8-----------6-88-8----------6-6/8-6--------|
a-8-10-----------0-8-10-----------0-8-10----------0-8-10----------10-8--|
e-----------------------------------------------------------------------|


Riff 3
g---------8\0--|
d-------6------|   X8
a-0/8-8--------|
e--------------|

Riff 4
g------------------------|
d----------10------------|   X4
a-(0/8)--8----11\---6--9-|
e------------------------|

then

Riff 5
g-----8\-------|
d---6----------|   X4
a-8-------6--9-|
e--------------|

Loop on riff 4 & 5 three times, end on a---8/
Feel free to post this, just give me credit-
Comments