Rapture - House Of Jealous Lovers Chords & Tabs

 

House Of Jealous Lovers Chords & Tabs

Rapture Chords & Tabs

Version: 2 Type: Bass Tab 0 ratings
1 star 2 stars 3 stars 4 stars 5 stars
comments

House Of Jealous Lovers Bass Tab

Okay so this is my version of House of Jealous Lovers...again I'm tabbing this
on a 3/4 acoustic guitar,and I've got little girl hands so enjoy...its pretty
accurate, or so I think. But give it a try

*Slide up to next note

Intro
g----------------------------------
d----------------------------------
a----------------------------------
e-1--1--1-1--1--1--1-1--1----------

* notice there are specified spaces in between the notes..long short long long short short....

Verses
[ Tab from: http://www.guitartabs.cc/tabs/r/rapture/house_of_jealous_lovers_btab_ver_2.html ]
g----------------------------------
d----------------------------------
a----------------------------------
e-1-1-*4-0-1-0---------------------

Chorus? ..(Jealous lovers shake doooooowwwwwwwwnnnnnnn) If thats the chorus

g--------------------------------------------------------
d--------------------------------------------------------
a-----0-1-1--1-----0-1-1--1-----0-1-1--1-----0-1---------
e-1-4----------1-4----------1-4----------1-4-----4-2-1---

*Remember the last four notes are long ...like they're decending
Then go back to verse

Hope you all enjoy! I also tabbed the Out of the races and onto the tracks...
If you want to e-mail me go right ahead TheBizarreShow@yahoo.com

Rate me!
Comments