Randy Rhoads - Diary Of A Madman Chords & Tabs

 

Diary Of A Madman Chords & Tabs

Randy Rhoads Chords & Tabs

Version: 1 Type: Tab 0 ratings
1 star 2 stars 3 stars 4 stars 5 stars
comments

Diary Of A Madman Tab

   
TUNE DOWN HALF A STEP...... I THINK!
Hey,this is the very first time i have done tabs!
So,as you can see,it's not perfect!But i'm only 15 years old... and have been playing guitar
for 1 year!...i'll have the rest of the song up in a couple of days!
ENJOY!!!
this is the intro to Diary of a madman!

E:--------------------0--------------|-----------------0-------------|----------------5------------|------------------5-------------|
B:----------------4------4----------|--------------4-----4----------|-------------4----4---------|---------------3-----3----------|
G:-------------6------------6-------|-----------6-----------6-------|----------5----------5------|-----------4------------4-------|
D:----------7-----------------7-----|--------5----------------5-----|-------4---------------4----|--------3------------------3----|
A:------0---------------------------|-----0-------------------------|-----0-----------------------|-----0---------------------------|
E:-----------------------------------|--------------------------------|-----------------------------|----------------------------------

E:-----------------0---------------|---------------------0------------|------------------------------0----------------------|
B:--------------2----2------------|------------------1-----1---------|---------------1-------------------1----------------|
G:-----------4---------4----------|--------------4------------4------|----------4---------4------------------4------------|
D:--------2---------------2-------|----------2-------------------2---|----------------------------------------------2------|
A:----0---------------------------|------0----------------------------|-----------------------------------------------------|
E:---------------------------------|------------------------------------|----3------------------------------------------------|

E:------------------------------0---------------|-------------------------------------------------------|-------------------0-------------|
B:---------------3-----------------3-----------|-------------------------------------------------------|-----0--------0--------0----3---|
G:----------2--------2-----------------2-------|-----------------------------1-----------1------------|----------1----------------------|
D:-----------------------------------------0----|--------------4-------4-----------4------------------|----------------------------------|
A:----------------------------------------------|----------2-------2-----------------------------------|----------------------------------|
E:-----1-----------------------------------------|----0-------------------------------------------------|---------------------------------|

THIS IS THE SECOND PART!
[ Tab from: http://www.guitartabs.cc/tabs/r/randy_rhoads/diary_of_a_madman_tab.html ]
E:------------------------------------------------------------------------|----------------------------------------------------------|
B:------------------------------------------------------------------------|---------------------------------------------------------|
G:-------5-----4-------------2------4------5------4--------2----------|-----------5-----4-----2-----4-----5-----4-------------|
D:----------2-----2------2------2------2------2-------2--------2-----|--------2-----2-----2-----2-----2-----2----------------|
A:---0----------------0-------------------------------------------------|----0----------------------------------------------------|
E:------------------------------------------------------------------------|-------------------------------------------------0-------|

E:-----------------------------------------------------------------------|----------------------------------------------------------|
B:------------------------------------------------------------------------|---------------------------------------------------------|
G:-------5-----4-------------2------4------5------4--------2----------|-----------5-----4-----2-----4-----5-----4-------------|
D:----------2-----2------2------2------2------2-------2--------2-----|--------2-----2-----2-----2-----2-----2----------------|
A:---0----------------0-------------------------------------------------|----0----------------------------------------------------|
E:------------------------------------------------------------------------|-------------------------------------------------0-------|

THIS IS WHERE THE ELECTRIC GUITAR KICK'S IN!!!

E:------------------------------------------------------------------------|----------------------------------------------------------|
B:------------------------------------------------------------------------|---------------------------------------------------------|
G:-------5-----4-------------2------4------5------4--------2----------|-----------5-----4-----2-----4-----5-----4-------------|
D:----------2-----2------2------2------2------2-------2--------2-----|--------2-----2-----2-----2-----2-----2----------------|
A:---0----------------0-------------------------------------------------|----0----------------------------------------------------|
E:------------------------------------------------------------------------|-------------------------------------------------0-------|

E:-----------------------------------------------------------------------|----------------------------------------------------------|
B:------------------------------------------------------------------------|---------------------------------------------------------|
G:-------5-----4-------------2------4------5------4--------2----------|-----------5-----4-----2-----4-----5------------------|
D:----------2-----2------2------2------2------2-------2--------2-----|--------2-----2-----2-----2-----2---------------------|
A:---0----------------0-------------------------------------------------|----0----------------------------------------------------|
E:------------------------------------------------------------------------|---------------------------------------------------------|

       E5                   F5         F#5          C5             B5
E:---------------------------|---------------------------------|
B:---------------------------|---------------------------------|
G:--4-----------------------|----------------5-----------4---|
D:--2----------------3------|---4-----------5-----------4---|
A:--2----------------3------|---4-----------3-----------2---|
E:--0-----------------1------|---2-----------3-----------2---|
Comments