Randy Rhoads - Dee Chords & Tabs

 

Dee Chords & Tabs

Randy Rhoads Chords & Tabs

Version: 1 Type: Tab 0 ratings
1 star 2 stars 3 stars 4 stars 5 stars
comments

Dee Tab

#----------------------------------PLEASE NOTE---------------------------------#
#This file is the author's own work and represents their interpretation of the #
#song. You may only use this file for private study, scholarship, or research. #
#------------------------------------------------------------------------------##
From: peford@rodan.acs.syr.edu (Patricia E. Ford)

[ Tab from: http://www.guitartabs.cc/tabs/r/randy_rhoads/dee_tab.html ]
"DEE" by Randy Rhodes     Transcribed by BLUESMAN
 
   Dee is a a somewhat fast paced song, so I doubt that this transcription
   will suffice without listening to the tape. It really is a basic song
   compared with most classical songs. But Randy has added in a few tricks
   here and there to make it sound difficult. Please forgive my non-standard
   format. Bascially, when notes are bunched together such as right after
   the first harmonic, you would fingerpick them rather quickly. I tried
   to vaguely capture the timing of the song by spacing the notes this
   way.
 
                  harmonic                  slide
1-------------------x7x---7---7---10---10--------------12-11-12----------------
2---12-----12--10---x7x-----7--7-----8---8-----------10------------------------
3---------12--------x7x----7-7------7-7------------9---------------------------
4--------12----9----x7x---9-------9----------9->11-----------------------------
5---10--10---------------------------------------------------------------------
6------------------------------------------------------------------------------
 
1-------------------3---3---2----------0---0-----0--------------0--------------
2---12-----12--10-----2---------5--3-----0---------3-2-3--3---3--3-------------
3---------12-------------------------------------------------2-2---------------
4--------12---------2-------0-------------------------------0------------------
5---10--10-----9----------------4--2-------------0-----------------------------
6--------------------------------------3------------------2--------------------
 
   trill pulloff                                                 harmonic
1---5=7=5>5
3---4=2=0------------------------------------0--------------------------0------
4----------4=2=0---------0>>>>--------------------0>>>>>>----------------------
5----------------4=2=0---------------------2--------------------------0--------
6------------------------------------------------------------------------------
      po        po   po  po             po   slide             slide
1---5-->--3-3-2-2>0--2>0-----0-------0-----------------------------------------
2------------------------3>0--------3---2>0--3>5---2---------------------------
3----------------------------------------------------0--3-3--2-----------------
4---0>>>>>>>>>-------4>>>>>>>---------------------------------0----------------
5-----------------------------------2---0----------0-------------2>0-----------
6---------------------------------------------------------2--------------------
 
     slide      slide   harmonic
1---7-->--5---5-->--3----x7x---------------------------------------------------
2---8--------------------x7x---------------------------------------------------
3------------------------x7x---------------------------------------------------
4------------------------x7x---------------------------------------------------
5-------------4----------------------------------------------------------------
6---0->>>>>--------------------------------------------------------------------
 
 
 
Comments