Randy - The Exorcist Chords & Tabs

 

The Exorcist Chords & Tabs

Randy Chords & Tabs

Version: 1 Type: Bass Tab 0 ratings
1 star 2 stars 3 stars 4 stars 5 stars
comments

The Exorcist Bass Tab

Randy
Song:      The Exorcist
Album:     You can't Keep A Good Band Down
Tabbed by: BassD
				*=pause
Intro
G|----------------------------------------------|
D|----------------------------------------------|
A|-3-3-3-3*-----------------------2-2-----------|
E|----------3-3-3-3*-1-1-1-1*-3-3---------------|

Verse (Play (1)x3,Then (2)x1)
G|----------------------------------------------------------|(1)
D|----------------------------------------------------------|
A|-3-3-3-3-3-----------------------------------0-2-3--------|
E|-----------0-3-3-3-3-3-0-1-1-1-1-1-0-3-3-3-3--------------|

G|----------------------------------------------------------|(2)
D|----------------------------------------------------------|
A|-3-3-3-3-3------------------------------------------------|
E|-----------0-3-3-3-3-3-0-1-1-1-1-1-0-3-3-3-3-3-0----------|

Pre-Chorus
G|-----------------------------------------------------------|
D|-------------------3-3-3--------------------5-5-5----------|
A|-------0-0-0-3-3-3--------------2-2-2-5-5-5----------------|
E|-1-1-1--------------------3-3-3----------------------------|

Chorus
G|-------------------------------------------------------------|
D|-------------------------------------------------------------|
A|-3-3-3-3-3-----------------------------------0-2-3-----------|
E|-----------0-3-3-3-3-3-0-1-1-1-1-1-0-3-3-3-3-----------------|
[ Tab from: http://www.guitartabs.cc/tabs/r/randy/the_exorcist_btab.html ]
Verse **
G|---------------------------------------------------------------|
D|---------------------------------------------------------------|
A|-3-3-3-3-3-----------------------------------0-2-3-------------|
E|-----------0-3-3-3-3-3-0-1-1-1-1-1-0-3-3-3-3-------------------|

G|---------------------------------------------------------------|
D|---------------------------------------------------------------|
A|-3-3-3-3-3-----------------------------------------------------|
E|-----------0-3-3-3-3-3-0-1-1-1-1-1-1-3-3-3-3-3-3-3-------------|

Verse 3
G|-----------------------------------------------------------------|
D|-----------------------------------------------------------------|
A|-3-3-3-3*---------------------------0-2-3------------------------|
E|----------3-3-3-3*-1-1-1-1*-3-3-3-3------------------------------|

G|-----------------------------------------------------------------|
D|-----------------------------------------------------------------|
A|-3-3-3-3*--------------------------------------------------------|
E|----------3-3-3-3*-1-1-1-1*-3ring--------------------------------|

End on chorus (the Fourth time)
G|---------------------------------------|
D|---------------------------------------|
A|-0-2-3-3-3-3---------------------------|
E|---------------------------------------|

Play in this order:Introx2
                   Versex4
                   Pre-Chorusx1
                   Chorusx2
                   Versex4
                   Pre-Chorusx1
                   Chorusx4
                   Verse **x1
                   Verse 3x1
                   Chorusx4
That is all
Email me at=rancid_ska@hotmail.com for comment or anything.

===============================================================================

Comments