Randy - Me And The Boys Chords & Tabs

 

Me And The Boys Chords & Tabs

Randy Chords & Tabs

Version: 1 Type: Bass Tab 0 ratings
1 star 2 stars 3 stars 4 stars 5 stars
comments

Me And The Boys Bass Tab

Randy
Song:      Me And The Boys
Album:     You Can't Keep A Good Band Down
Tabbed by: BassD
					>=play a couple of time
				        x=mute note
Intro x4
G|--------------------------------------|The (1) is like a ghost note.
D|--------------------------------------|Youre not obligated to play it
A|-3-x-------------------------3--------|but I just think it sounds
E|-----1--1-1-3-3-1-1--1-3-(1)----------|better.

Verse x4
G|--------------------------------------|
D|--------------------------------------|
A|-3-x-------------------------3--------|
E|-----1--1-1-3-3-1-1--1-3-(1)----------|

Pre-Chorus
G|---------------------------------|
D|---------------------------------|
A|---------------------------------|
E|-5>-3>-1>-3--4--5>-3>-1>-3>------|

(Verse x4)
(Pre-Chorus)

Chorus x2
G|-----------------|
D|-----------------|
A|-3>--------------|
E|----3>-0>-1>-----|
[ Tab from: http://www.guitartabs.cc/tabs/r/randy/me_and_the_boys_btab.html ]
(Verse x4) the fourth time play this
G|--------------------|
D|--------------------|
A|-3-x----------------|
E|-----1--1-1-3-*-----|  *=pause

(Verse x4)
(Pre-Chorus)
(Chorus x4)

Bridge
G|-------------------------------|
D|-------------------------------|
A|-6>-8>----5>-6>-8>-------------|
E|-------6>----------6-5-3-1-----|

G:--------------------------------|
D:--------------------------------|
A:-6>-8>-----5ring--6>-8>---------|
E:-------6-6--------------6ring---|


After the bass comes in with this
G|------------------------------|(the guitar does that 2 times
D|------------------------------|and there's no bass during
A|------------------------------|those 2 times)
E|-6>-5>-3>-1>--6>-5>-3>-1>-----|

(Chorus x4)

End with
G|---------------------------------------------------|
D|----5>-6>-7>-2--2-2-2------------------------------|
A|-3>-------------------3>----------3ring-----3------|
E|-------------------------3>-1>-3>------------------|


Enjoy!
Comments,questions?
Email= rancid_ska@hotmail.com

=====================================================================

Comments