Rancid - Young Al Capone Chords & Tabs

 

Young Al Capone Chords & Tabs

Rancid Chords & Tabs

Version: 1 Type: Bass Tab 0 ratings
1 star 2 stars 3 stars 4 stars 5 stars
comments

Young Al Capone Bass Tab

Rancid
"Young Al Capone"
Album: Rancid(2000)
Tabbed By: Alec(misfit809@Hotmail.com)

INTRO: Play over solo
G:--------------------------|
D:-10>-9---9-10>-9----------|
A:------12>--------12-12-12-|
E:--------------------------|

VERSE: this one is complicated

G:-------------------------------------|
D:-------------9-9--------------9------|
A:-10-10-10-10----12---------------9-10|
E:------------------12-12-12-12--12----|

G:-------------------------|
D:-------------------------|
A:-10-10-10-10-------------|
E:-------------12-12-12-12-|


G:-12-12-12-12-12-10-9------------|
D:--------------------------------|
A:--------------------------10-10-|
E:---------------------12-12------|


G:-----------------------------------------------------|
D:-------12------12------12------12------12------------|
A:-10-12---10-12---10-12---10-12---10-12---------10-10-|
E:------------------------------------------12-12------|

[ Tab from: http://www.guitartabs.cc/tabs/r/rancid/young_al_capone_btab.html ]
G:------------------------------------------12-11-10-9---------------|
D:-------12------12------12------12------12------------12-10-9-------|
A:-10-12---10-12---10-12---10-12---10-12--------------------------10-|
E:-------------------------------------------------------------12----|

G:------------------------------------|
D:-------12-12-12-12-10-9-------------|
A:-10-12------------------10----------|
E:---------------------------12-11-9--|

G:----------------------------------|
D:----------12-10-9-----------------|
A:-10--10-12-------12---10----------|
E:---12---------------12---12-10-12-|

G:-------------------------------------|
D:-------------------------------------|
A:-10-10-10-10-10-10-10----------------|
E:----------------------12-12-12-12-12-|

CHORUS:

G:---------------------------|
D:---------------------------|
A:-10>-----------------------|
E:----------------12>--------|

PLAY OVER SOLO:

G:--------------------------|
D:-10>-9---9-10>-9----------|
A:------12>--------12-12-12-|
E:--------------------------|

VERSE P.II:too easy

G:---------------------------|
D:---------------------------|
A:-10>-----------------------|
E:----------------12>--------|

OUTRO:

G:--------------------------|
D:-10>-9---9-10>-9----------|
A:------12>--------12-12-12-|
E:--------------------------|

Comments