Rancid - Travis Bickle Chords & Tabs

 

Travis Bickle Chords & Tabs

Rancid Chords & Tabs

Version: 1 Type: Tab 0 ratings
1 star 2 stars 3 stars 4 stars 5 stars
comments

Travis Bickle Tab

   
Artist: Rancid
Album: Indestructable
Song: Travis Bickle

Ok, I looked everywhere for this tab, and I couldn't find it.
So I made my own. I know it's almost 100% correct, if not
100% correct. Simple song, and I love it. Enjoy.

Standard Tuning: EADGBe

b = bend
pm = palm mute
~ = let ring

Intro:
e|-------------------------------|
B|-------------------------------|
G|-7-6-----4-------4~------------|
D|-7-6---4---4---4---------------|
A|-5-4-2-------2-----------------|
E|-------------------------------|

e|-------------------------------|
B|-------------------------------|
G|-7-6-----4-------4~------------|
D|-7-6---4---4---4---------------|
A|-5-4-2-------2-----------------|
E|-------------------------------|
                   ^On last note on second time,
                   flip the toggle switch back and
                   forth real fast for the pausing
                   sound.

Pre-Verse:
e|---------------------------|
B|---------------------------|
G|-4-44----------------------|  x4  Last time, end the
D|-4-44--4-44--555555--------|      last note short
A|-2-22--4-44--555555--------|
E|-------2-22--333333--------|
  |........pm.........|

[ Tab from: http://www.guitartabs.cc/tabs/r/rancid/travis_bickle_tab.html ]
Verse:
e|------------------------------------|
B|------------------------------------|
G|-44444444---------------------------| x4
D|-44444444--44444444--555555555555---|
A|-22222222--44444444--555555555555---|
E|-----------22222222--333333333333---|
  |.............pm.................|

Chorus:
e|-2-22-22-22-2---2-22-22-22-2---3-33-33-33---5-55---5-55--|
B|-3-33-33-33-3---2-22-22-22-2---3-33-33-33---7-77---5-55--|
G|-4-44-44-44-4---3-33-33-33-3---4-44-44-44---7-77---5-55--| x2
D|-4-44-44-44-4---4-44-44-44-4---5-55-55-55---7-77---7-77--|
A|-2-22-22-22-2---4-44-44-44-4---5-55-55-55---5-55---7-77--|
E|----------------2-22-22-22-2---3-33-33-33----------5-55--|

Bridge:
e|------------------------------------------------------|
B|------------------------------------------------------|
G|-77777777777---------------77777777777----------------|
D|-77777777777-6666666666666-77777777777-444444444444---|
A|-55555555555-6666666666666-55555555555-444444444444---|
E|-------------4444444444444-------------222222222222---|

e|------------------------------------------------------|
B|------------------------------------------------------|
G|-7777777777-------------------------------------------|
D|-7777777777-6666666666666-77777777777777777777777777--|
A|-5555555555-6666666666666-77777777777777777777777777--|
E|------------4444444444444-55555555555555555555555555--|


Solo:
e|------------------------5b-5b5b5b-5b5b---|
B|-3-3-3-333--5-3-5b-3-5-------------------|
G|-----------------------------------------|
D|-----------------------------------------|
A|-----------------------------------------|
E|-----------------------------------------|

Well, that's it. Great song, one of my favorites.
PLEASE RATE

Questions or Comments?
vanceaase67@hotmail.com
Comments