Rancid - Time Bomb Chords & Tabs

 

Time Bomb Chords & Tabs

Rancid Chords & Tabs

Version: 6 Type: Tab 0 ratings
1 star 2 stars 3 stars 4 stars 5 stars
comments

Time Bomb Tab

   
Typed by (Jeremy) 
This is probraly 85% right
Rancid-TimeBomb   

E|-------------------|-----------------|
B|-------------------|-----------------|pull off 
G|-4-4-4--9-9-9------|4-4-4--9-9-9-----| 
D|-4-4-4--9-9-9------|4-4-4--9-9-9-----| 
A|-2-2-2--7-7-7------|2-2-2--7-7-7-----| 
E|-------------------|-----------------| 

 play each verse 8x 
 
E|-x7-x7-x7-x7------------------| 
B|-x7-x7-x7-x7-x9-x9-x9-x9------| 
G|-x7-x7-x7-x7-x9-x9-x9-x9------| 
D|-------------x9-x9-x9-x9------| 
A|------------------------------| 
E|------------------------------| 

play each verse 2x 

E|--------------------------|-----------------------------| 
B|-x5-x5-x5-x5-x7-x7-x7-x7--|-x9-x9-x9-x9-x7-x7-x7-x7-----| 
G|-x6-x6-x6-x6-x7-x7-x7-x7--|-x9-x9-x9-x9-x7-x7-x7-x7-----| 
D|-x7-x7-x7-x7-x7-x7-x7-x7--|-x9-x9-x9-x9-x7-x7-x7-x7-----| 
A|--------------------------|-----------------------------| 
E|--------------------------|-----------------------------| 
[ Tab from: http://www.guitartabs.cc/tabs/r/rancid/time_bomb_tab_ver_6.html ]
  
E|--------------------------------| 
B|--------------------------------| 
G|--------------------------------| 
D|-2-2-2-2-2-2-2-2-2-2-2-2-2-2-2-2| 
A|-2-2-2-2-2-2-2-2-2-2-2-2-2-2-2-2| 
E|-0-0-0-0-0-0-0-0-0-0-0-0-0-0-0-0| 


E|--------------------------------------------|------------------|----------------|----------|
B|--------------------------------------------|------------------|----------------|----------|
G|4---2-4-7-7-7-77-7-6-|4---2-4-7-7-7-7-7-7-6-|4-2-4-7-7-7-7-7-6-|7-7-6-7-7-6-7-7-6-7-7-6-7-9|
D|--------------------------------------------|------------------|----------------|----------|
A|--------------------------------------------|------------------|----------------|----------|
E|--------------------------------------------|------------------|----------------|----------|

 
E|5-4-2-0-2-4--2-0-------------------|----------------------------| 
B|------------------2-2-3-2-2-h3-h2-0|---2-3-2-2---2-3-2-2-h3--5-3| 
G|-----------------------------------|-2---------2----------------| 
D|-----------------------------------|----------------------------| 
A|-----------------------------------|----------------------------| 
E|-----------------------------------|----------------------------|
Comments