Rancid - Time Bomb Chords & Tabs

 

Time Bomb Chords & Tabs

Rancid Chords & Tabs

Version: 5 Type: Tab 0 ratings
1 star 2 stars 3 stars 4 stars 5 stars
comments

Time Bomb Tab

 Intro                   Rancid-Time Bomb
--------------------------------------------------4--------------------
---3---3---3-------------------3---3---3---3------5--------------------
---4---4---4------1---1---2--2-----4---4---4------4--------------------
---4---4---4------2---2------------4---4---4---------------------------
---2---2---2------2---2------------2---2---2---------------------------
-----------------------------------------------------------------------
Verse 4x
-----------x-------x-------x-------4---4---x---4---x---4---x---4
---3---3---x---3---x---3---x---3---5---5---x---5---x---5---x---5
---4---4---x---4---x---4---x---4---4---4---x---4---x---4---x---4
---4---4---x---4---x---4---x---4--------------------------------
---2---2---x---2---x---2---x---2--------------------------------
----------------------------------------------------------------

Chorus 2x
     
---5---5---x---5---x---5---x---5---5---5---x---5---x---5---x---5---7---7---x
---5---5---x---5---x---5---x---5---7---7---x---7---x---7---x---7---9---9---x
---6---6---x---6---x---6---x---6---7---7---x---7---x---7---x---7---9---9---x
---7---7---x---7---x---7---x---7---7---7---x---7---x---7---x---7---9---9---x
---7---7---x---7---x---7---x---7---5---5---x---5---x---5---x---5---7---7---x
---5---5---x---5---x---5---x---5-----------x-------x-------x---------------x

---7---x---7---x---7---5---5---x---5---x---5---x---5
---9---x---9---x---9---7---7---x---7---x---7---x---7
---9---x---9---x---9---7---7---x---7---x---7---x---7
---9---x---9---x---9---7---7---x---7---x---7---x---7
---7---x---7---x---7---5---5---x---5---x---5---x---5
-------x-------x---------------x-------x-------x----

Solo
[ Tab from: http://www.guitartabs.cc/tabs/r/rancid/time_bomb_tab_ver_5.html ]
---
--------------3-3-3-2------------3-3-3-2-----------3-3-3-2-3-3-2-3-3-2-3-3-2-
---4---2---4---------4---2---4--------4---2---4------------------------------
-----------------------------------------------------------------------------
-----------------------------------------------------------------------------
-----------------------------------------------------------------------------

---3-5---5---5---x---5---x---5---x---5---5---5---x---5---x---5---x---5
---------5---5---x---5---x---5---x---5---7---7---x---7---x---7---x---7
---------6---6---x---6---x---6---x---6---7---7---x---7---x---7---x---7
---------7---7---x---7---x---7---x---7---7---7---x---7---x---7---x---7
---------7---7---x---7---x---7---x---7---5---5---x---5---x---5---x---5
---------5---5---x---5---x---5---x---5-----------x-------x-------x---

---7---7---x---7---x---7---x---7---5---5---x---5---x---5---x---5
---9---9---x---9---x---9---x---9---7---7---x---7---x---7---x---7
---9---9---x---9---x---9---x---9---7---7---x---7---x---7---x---7
---9---9---x---9---x---9---x---9---7---7---x---7---x---7---x---7
---7---7---x---7---x---7---x---7---5---5---x---5---x---5---x---5
-----------x-------x-------x---------------x-------x-------x----]

---5---5---x---5---x---5---x---5---5---5---x---5---x---5---x---5-------2-
---5---5---x---5---x---5---x---5---7---7---x---7---x---7---x---7-------3-
---6---6---x---6---x---6---x---6---7---7---x---7---x---7---x---7---1---2-
---7---7---x---7---x---7---x---7---7---7---x---7---x---7---x---7---2-----
---7---7---x---7---x---7---x---7---5---5---x---5---x---5---x---5---2-----
---5---5---x---5---x---5---x---5-----------x-------x-------x-------------

After that do the Verse and the chorus 1 more time.
Comments