Rancid - Time Bomb Chords & Tabs

 

Time Bomb Chords & Tabs

Rancid Chords & Tabs

Version: 5 Type: Bass Tab 0 ratings
1 star 2 stars 3 stars 4 stars 5 stars
comments

Time Bomb Bass Tab

this is a complete and 100% tab bass tab of time bomb by rancid this is my first that i
submit i hope that u can like it email me if you have any comments or suggestion at
ska_punk32@yahoo.com cheers!
:
# intro #
G-----------------------------------|
D-----------------------------------|
A---2--2--2---------2--2--2--/7-7---|
E------------00-0-------------------|
:
# verse #  !all notes X2!  @=strum once only
G---------------@@@@--------------@@------------@@@@------------------|
D---------4-2-4-2-------------------------4-2-4-2---------------------|
A---2-4-5--------5452-4-5-4--------52-4-5--------5452-4-5-4-------2---|
E---------------------------0-2-3-3-------------------------0-2-4-----|
:
# chorusX2 #  !all notes X2!  @=strum once only  &&=ten, not one and zero
G---------@@----------&&----------@@---|
D--------------------------------------|
A---0-4-7-475-4-5-6-7-109-7-5-4-5-57---|
E--------------------------------------|
:
Then play verse
Then play chorusX2
Then play verse
Then play chorusX2
:
# break #  *=play 14-16 times
G-------------------|
D-------------------|
A----*--------------|
E---0---------------|
:
Then play verse
:
# bridge #
G-----------------------------------------------------------------------|
D-----------------------------------------------------------------------|
A-------4-7-5\4-5-6-7777555544457547----4-7-5-4-5-6-7-------5-----------|
E---55-5----------------------------55-5--------------------------------|
:
Then play verse
Then play chorusX4
Then play break
End on E---5---5---5---
:
[ Tab from: http://www.guitartabs.cc/tabs/r/rancid/time_bomb_btab_ver_5.html ]
Comments