Rancid - Time Bomb Chords & Tabs

 

Time Bomb Chords & Tabs

Rancid Chords & Tabs

Version: 3 Type: Bass Tab 0 ratings
1 star 2 stars 3 stars 4 stars 5 stars
comments

Time Bomb Bass Tab

Song Title: Time Bomb
Artist: Rancid
----------------------------------------------

                                            Antonio Musco                
"Time Bomb" by Rancid from "...And Out Come the Wolves" (1995) 



Intro-

G -----------------------------
D 9-9-9----------9-9-9---------
A ---------7-7-7----------7-7-7
E -----------------------------
           
Verse-

G ------------11 9 11 9----------
D 9-11-12----------------12-11-12
A -------------------------------
E -------------------------------

G -------------------------6-7
D 9-11-12-11----6-7-----------
A -----------------7----------
E ----------------------------
[ Tab from: http://www.guitartabs.cc/tabs/r/rancid/time_bomb_btab_ver_3.html ]
G -----------11-9-11-9-----------
D 9-11-12----------------12-11-12
A -------------------------------
E -------------------------------

G -------------------------6-7-
D 9-11-12-11----6-9------------
A -----------------7-----------
E -----------------------------

Chorus-

G ---6-9-6-7-6----------------------------
D 7---------------9-7---5-6---------------
A ----------------------7------9-7-5-4-5-7
E ----------------------------------------

Repeat

Keyboard solo-

G -------------------------------
D -------------------------------
A ---4-7-5-4-5-6-7-5-4-7-5-4-5---
E 5 5----------------------------

G ----------------------------
D ----------------------------
A ------4-7-5-4-5-6----7----5-
E 5-5-------------------------


                                       Antonio Musco 


Submitted by:  Antonio Musco (a.musco@tau.it)
Comments