Rancid - Time Bomb Chords & Tabs

 

Time Bomb Chords & Tabs

Rancid Chords & Tabs

Version: 2 Type: Bass Tab 0 ratings
1 star 2 stars 3 stars 4 stars 5 stars
comments

Time Bomb Bass Tab

Artist: Rancid
Song:   Time Bomb
Album:  ...And Out Come The Wolves
Tabbed by mauro_b (benzanotto@libero.it)

slide up\r\n\r\n

INTRO
|-------------------------------------------|
|-------------------------------------------|
|--2----2--2-----------2----2--2-\--7--7-7--|
|-------------0--0-0------------------------|

VERSE
|-----------------------------------------------------------------------|
|------0-4-2-4-2-------------------------0-4-2-4-2----------------------|
|--2-4----------545-2-4-5-4-------0--2-4-----------545-2-4-5-4-------2--|
|---------------------------0-2-4------------------------------0-2-4----|
[ Tab from: http://www.guitartabs.cc/tabs/r/rancid/time_bomb_btab_ver_2.html ]
CHORUS
|-------------------------------------------------------------------|
|----------2-2---2---------------------5-5-4-4----------------------|
|--0-0-4-4-----4---5-5-4-4-5-5-6-6-7-7---------7-7-5-5-4-4-5-5-4-4--|
|-------------------------------------------------------------------|

BREAK
|-----------------------------------|
|-----------------------------------|
|-----------------------------------|
|--0-0-0-0-0-0-0-0-0-0-0-0-0-0-0-0--|

BRIDGE
|---------------------------------------------------------------------------|
|---------------------------------------------------------------------------|
|---------4--7-5-4-5-6-7777-5555-44457547---------4--7-5-4-5-6-7~-------5~--|
|--5-5--5----------------------------------5-5--5---------------------------|

END |---------------|
    |---------------|
    |--0----0----0--|
    |---------------|
Comments