Rancid - Time Bomb Chords & Tabs

 

Time Bomb Chords & Tabs

Rancid Chords & Tabs

Version: 1 Type: Bass Tab 0 ratings
1 star 2 stars 3 stars 4 stars 5 stars
comments

Time Bomb Bass Tab

   
Song:    Time Bomb
Artist:  Rancid
Album:   ..And Out Come The Wolves
Tabbed By: Rascal (Member of the Bass Tab Archive Tabbing Army)
---------------------------------------------------------------

INTRO

	G |-----------------------------------
	D |--9-9-9-------9-9-9----------------
	A |--------77-7--------77-7-----------
	E |-----------------------------------


VERSE
	    e e e e e sssssse e e e e ssssss
	G |-----------------------------------
	D |-----0-4-2-024200----0-4-2---------
	A |-2-4-------------2-4----------024--
	E |---------------------------024-----
[ Tab from: http://www.guitartabs.cc/tabs/r/rancid/time_bomb_btab.html ]
	    e e e e e sssssse e e e e ssssss
	G |-----------------------------------
	D |-----0-4-2-024200----0-4-2---------
	A |-2-4-------------2-4---------------
	E |---------------------------002244--


CHORUS
	    ssssssssssssssssssssssssssssssss	
	G |-----------------------------------
	D |-----------445577--995544----------
	A |---44774455------77------55445544--
	E |-55--------------------------------
	

INTERLUDE

	G |-----------------------------------
	D |-----------------------------------
	A |-----4-7-5-4-5-6-7-5-4-7-5-4-5-----
	E |-5-5-------------------------------

	G |-----------------------------------
	D |-----------------------------------
	A |-----4-7-5-4-5-6---7---5-----------
	E |-5-5-------------------------------


ENDING
	G |--------------
	D |--------------
	A |--------------
	E |-5---5---5----
	
STRUCTURE
	
	INTRO
	VERSE
	CHORUS X 2
	VERSE
	CHORUS X 2
	VERSE
	CHOURS X 2
	VERSE
	INTERLUDE
	VERSE 
	CHOURS X 4
	ENDING
---------------------------------------------------------
This is a correction of the previous tab by Antonio Musco


Comments