Rancid - The Wolf Chords & Tabs

 

The Wolf Chords & Tabs

Rancid Chords & Tabs

Version: 1 Type: Tab 0 ratings
1 star 2 stars 3 stars 4 stars 5 stars
comments

The Wolf Tab

   
AND: RANCID
SONG:THE WOLF
TABBER:VITOR ZERVELIS       alucardrato@yahoo.com.br


INTRO:

    C
e---------------------------------------------------------------|
B---------------------------------------------------------------|
G---------------------------------------------------------------|
D---------------------------------------------------------------|
A---10--12--10---10--12--10---10--12--10---10--12--10-----------|
E---8---8---8----8---8---8----8---8---8----8---8---8------------|

    F
e---------------------------------------------------------------|
B---------------------------------------------------------------|
G---------------------------------------------------------------|
D---10--12--10---10--12--10---10--12--10---10--12--10-----------|
A---8---8---8----8---8---8----8---8---8----8---8---8------------|
E---------------------------------------------------------------|


    A#                          F
e---------------------------------------------------------------|
B---------------------------------------------------------------|
G---------------------------------------------------------------|
D-------------------------------10--12---10---10--12---10-------|		2X
A---8---10---8---8---10---8-----8---8----8----8---8----8--------|
E---6---6----6---6---6----6-------------------------------------|


    C
e---------------------------------------------------------------|
B---------------------------------------------------------------|
G---------------------------------------------------------------|
D---------------------------------------------------------------|
A---10--12--10---10--12--10---10--12--10---10--12--10-----------|           PICKSCRAP
E---8---8---8----8---8---8----8---8---8----8---8---8------------|           ////////


VERSE:

|--------------|
|--------------|
|-----3~--5~---|  x3
|-3~--3~--5~---|
|-3~--1~--3~---|
|-1~-----------|

PRE CHORUS:

|---------------------------------------|
|---------------------------------------|
|-33333333--22222222--------------------|
|-33333333--22222222--5555555555555555--|
|-11111111--00000000--5555555555555555--|
|---------------------3333333333333333--|

CHORUS: I THINK THAT ONE GUITAR DOES THE INTRO UNDER THIS CHORDS

|-----------------------|
|-----------------------|
|------10~-----10~------|
|-10~--10~--8~-10~-10~--| X2
|-10~--8~---8~-8~--10~--|
|-8~--------6~-----8~---|


VERSE:

|--------------|
|--------------|
|-----3~--5~---|  x3
|-3~--3~--5~---|
|-3~--1~--3~---|
|-1~-----------|

PRE CHORUS:
[ Tab from: http://www.guitartabs.cc/tabs/r/rancid/the_wolf_tab.html ]
|---------------------------------------|
|---------------------------------------|
|-33333333--22222222--------------------|
|-33333333--22222222--5555555555555555--|
|-11111111--00000000--5555555555555555--|
|---------------------3333333333333333--|

CHORUS: I THINK THAT ONE GUITAR DOES THE INTRO UNDER THIS CHORDS

|-----------------------|
|-----------------------|
|------10~-----10~------|
|-10~--10~--8~-10~-10~--| X2
|-10~--8~---8~-8~--10~--|
|-8~--------6~-----8~---|

    C
e---------------------------------------------------------------|
B---------------------------------------------------------------|
G---------------------------------------------------------------|
D---------------------------------------------------------------|
A---10--12--10---10--12--10---10--12--10---10--12--10-----------|		PICKSCRAP
E---8---8---8----8---8---8----8---8---8----8---8---8------------|		////////

SOLO: LISTEN TO GET THE TIME..

|-88----88----88----------------------------------------------------------------|
|-88----88----88----------------------------------------------------------------|
|---10b---10b---10b-10p8-8-10-8-10b-10-8--10b-10-8-----8-10b-10-10-8------------|
|--------------------------------------------------10----------------10---10-10-|
|-------------------------------------------------------------------------------|
|-------------------------------------------------------------------------------|

|--------------------------------------------------------------------------|
|--------------------------------------------------------------------------|
|---------------8-10b-10-8-10b-10-8----8-10-8-10-10b-10-8-10b-10b-10b-8----|
|--------8-9-10---------------------10----------------------------------10-|
|-8-9-10-------------------------------------------------------------------|
|--------------------------------------------------------------------------|

CHORUS: I THINK THAT ONE GUITAR DOES THE INTRO UNDER THIS CHORDS

|-----------------------|
|-----------------------|
|------10~-----10~------|
|-10~--10~--8~-10~-10~--| X2
|-10~--8~---8~-8~--10~--|
|-8~--------6~-----8~---|

    C
e---------------------------------------------------------------|
B---------------------------------------------------------------|
G---------------------------------------------------------------|
D---10------10---10------10---10------10---10------10------10---|
A---10--12--10---10--12--10---10--12--10---10--12--10------10---|
E---8---8---8----8---8---8----8---8---8----8---8---8-------8----|
                                                          Yeah!
Comments