Rancid - The Wars End Chords & Tabs

 

The Wars End Chords & Tabs

Rancid Chords & Tabs

Version: 2 Type: Bass Tab 0 ratings
1 star 2 stars 3 stars 4 stars 5 stars
comments

The Wars End Bass Tab

   
Rancid
Bass Tabliture for The Wars End:
Intro:
G:--------------------------------
D:--------------------------------
A:5-5-5-5-5-5-5-5-5-5-5-5-5-5-5-5-
E:--------------------------------
Verse: (Repeat 1x)
G:------------------------------------------------------------
D:------------------------------------------------------------
A:----------------5-5-5-5-5-5-5-5-3-3--2----------------------
E:3-3-3-3-3-3-3-3-------------------------5--3-3--3-3-3-3-3-3-
"WAR! Sammy the war is over!":
G:------------------------------------------------------------
D:------------------------------------------------------------
A:3--3-3-3-3-3-3-----------------5--5-5-5-5-5-5-5-5-5-5-5-----
E:---------------3-3-3-3-3-3-3-3--------------------------3-3-
"WAR! Sammy we're at the war's end":
G:--------------------------------------------------------------
D:--------------------------------------------------------------
A:3--3-3-3-3-3-3-----------------5--5-5-5-5-5-5-5-5-5-5-5-5-5-5-
E:---------------3-3-3-3-3-3-3-3--------------------------------
"WE'RE AT THE WAR'S END" etc.: (Repeat 3x)
G:--------------------
D:--------------------
A:----5---3-3--2------
E:3---------------5---
Instrumental:
G:----------------------------------------------------------
D:-----------------------4-5-6-7--7--5-----5----------------
A:--------------------5-----------------7-----77-6-5---3--5-
E:5-5-5-5-5-5-5-5-3-----------------------------------------
Instrumental:
G:--------------------------------567-345-345------------------
D:------------------------5-6-7-7-------------345-234-123------
A:-----------------3-4-5----------------------------------5-3-5
E:5-5-5-5-3-5-5--3---------------------------------------------



Figured out and written by Fidget

[ Tab from: http://www.guitartabs.cc/tabs/r/rancid/the_wars_end_btab_ver_2.html ]
Comments